Song name
# A B C D E F G H I J K L M N O P Q R S T U V W X Y Z

Mudhoney - Sonic Infusion tab

intro:
---------------------------------|
---------------------------------|
---------------------------------|
-----2---------------0-----------|
---2---2---2---2---1---1---0---0-|
-0-------3---3---2-------1---1---|

2nd intro/verse  Em/G/F
(lead guitar)
------------------------------|
-8~~~-10fb(12)-6-5~~~~~-------|
------------------------------|
------------------------------|
------------------------------|
------------------------------|

chorus
------------------------------------------------------------------|
------------------------------------------------------------------|
-7-7-7-7-7-7-7-7-7-7-7-7-7-7-7-7-5-5-5-5-5-5-5-5------------------|
-7-7-7-7-7-7-7-7-7-7-7-7-7-7-7-7-5-5-5-5-5-5-5-5------------------|
-5-5-5-5-5-5-5-5-5-5-5-5-5-5-5-5-3-3-3-3-3-3-3-3------------------|
------------------------------------------------------------------|

---------------------------------|
---------------------------------|
-4-4-4-4-4-4-4-4-4-4-4-4-4-4-4-4-|
-4-4-4-4-4-4-4-4-4-4-4-4-4-4-4-4-|
-2-2-2-2-2-2-2-2-2-2-2-2-2-2-2-2-|
---------------------------------|
Tap to rate this tab
 
# A B C D E F G H I J K L M N O P Q R S T U V W X Y Z