Song name
# A B C D E F G H I J K L M N O P Q R S T U V W X Y Z

Mudhoney - Hate The Police tab

(4/4 Time) (Tuning [Low to High] Eb Ab Db Gb Bb Eb) Intro:
 Eb
-------------------------------------------------------------|
-------------------------------------------------------------|
-------------------------------------------------------------|
-2-2-2-2-2-2-2-2-2-2-2-2-2-2-2-2-2-2-2-2-2-2-2-2-2-2-2-2-2-2-|
-2-2-2-2-2-2-2-2-2-2-2-2-2-2-2-2-2-2-2-2-2-2-2-2-2-2-2-2-2-2-|
-0-0-0-0-0-0-0-0-0-0-0-0-0-0-0-0-0-0-0-0-0-0-0-0-0-0-0-0-0-0-|
(Guitar 1)

-------------------------------------------------------------|
-------------------------------------------------------------|
-------------------------------------------------------------|
-2-2-2-2-----------------------------------------------------|
-2-2-2-2-----------------------------------------------------|
-0-0-0-0-----------------------------------------------------|
(Guitar 1)


Verse:
 Eb               B   F#         Db
-------------------------------------------------------------|
------------------*------------------------------------------|
------------------5-5------------7-7-7-7-7-------------------|
-2-2-2-2--2-2-2-2-5-5-5-5-5-5-5--7-7-7-7-7-------------------|
-2-2-2-2--2-2-2-2-3-3-5-5-5-5-5--5-5-5-5-5-------------------|
-0-0-0-0--0-0-0-0-----3-3-3-3-3------------------------------|
(Guitar 1) (Doubled Simile By Guitar 2 [Acoustic]) (Start at
* During First Verse)


Chorus:
 B           Db          Eb
-------------------------------------------------------------|
-------------------------------------------------------------|
-5-5-5-5-5-5-7-7-7-7-7-7-9-9-9-9-9-9-9-9-9-9-9-9-------------|
-5-5-5-5-5-5-7-7-7-7-7-7-9-9-9-9-9-9-9-9-9-9-9-9-------------|
-3-3-3-3-3-3-5-5-5-5-5-5-7-7-7-7-7-7-7-7-7-7-7-7-------------|
-------------------------------------------------------------|
(Guitars 1 and 2) (Play Above Twice then Below Three Times)

 B   Eb
-------------------------------------------------------------|
-------------------------------------------------------------|
-5-5-9-9-9-9-9-9-9-------------------------------------------|
-5-5-9-9-9-9-9-9-9-------------------------------------------|
-3-3-7-7-7-7-7-7-7-------------------------------------------|
-------------------------------------------------------------|
(Guitars 1 and 2)


Ending:
 Eb
-------------------------------------------------------------|
-------------------------------------------------------------|
-------------------------------------------------------------|
-2---------------------------2-------------------------------|
-2---------------------------2-------------------------------|
-0---------------------------0-------------------------------|
(Guitars 1 and 2)
Tap to rate this tab
 
# A B C D E F G H I J K L M N O P Q R S T U V W X Y Z