Song name
# A B C D E F G H I J K L M N O P Q R S T U V W X Y Z

Mudhoney - When Tomorrow Hits tab

Help us improve GuitareTab! Take a short survey!
*********************************
* MUDHONEY - WHEN TOMORROW HITS *
*********************************

Tuning: Standard


Good song, and fun to play.

Tabbed By Juan De Camillis.


* INTRO/VERSE (Clean)

e|------------------|
B|----------10------|
G|-10-7-10--10-7-7--|
D|--0-0--0---0-0-0--|
A|------------------|
E|------------------|



* CHORUS (Clean)
e|------------------|----------------------------------------------|
B|----------10------|----------------------------------------------|
G|-10-7-10--10-7-7--|-10-7-5-5\2-2-2-2\3-3-3-3-3-3-3-3-3-3-3-3-3-3-|
D|--0-0--0---0-0-0--|--0-0-0-0-0-0-0-0-0-0-0-0-0-0-0-0-0-0-0-0-0-0-|
A|------------------|----------------------------------------------|
E|------------------|----------------------------------------------|
     "...when tomorrow hits..."


* VERSE (Clean)

e|------------------|
B|----------10------|
G|-10-7-10--10-7-7--|
D|--0-0--0---0-0-0--|
A|------------------|
E|------------------|

* LAST CHORUS (Distortion)

e|-----------------------|
B|-10-10-10--10-7--7-7-7-|
G|-10-10-10--10-7--7-7-7-|
D|-10-10-10--10-7--7-7-7-|
A|--8--8--8---8-5--5-5-5-|
E|-----------------------|
   "...when tomorrow hits..."

* OUTRO

e|--------------------|
B|-10~~~~~~~~~~~~~~-7-|
G|-10~~~~~~~~~~~~~~-7-|
D|-10~~~~~~~~~~~~~~-7-|
A|--8~~~~~~~~~~~~~~-5-|
E|--------------------|

~~~~~~~: Let Ring
Related for When Tomorrow Hits tab