Guitaretab - guitar tabs
Song name
# A B C D E F G H I J K L M N O P Q R S T U V W X Y Z

Mudhoney - Fuzzgun 91 tab

Song: fuzzgun ‘91
Artist: Mudhoney
Tabber: frankv (superfrank_91@hotmail.com)

V = vibrato
H = hammer on
P = pull of
/ slide up
\ slide down

Intro

G1
e||---------------3----------------------||
B||-------------3--3---------------------||
G||-----------4------5---5-5--3---3-3-3--||
D||---------5--------5---5-5--3---3-3-3--||
A||------\-----------3---3-3--1---1-1-1--||
E||--5-----------------------------------||

Main riff

G1 + G2
e||------------------------------------------------||
B||------------------------------------------------||
G||----------------------------5---5-5--3---3-3-3--||
D||--5-5-5-5-5-5-5---5—-5--5---5---5-5--3---3-3-3--||
A||--5-5-5-5-5-5-5---5—-5--5---3---3-3--1---1-1-1--||
E||--3-3-3-3-3-3-3---3--3-—3-----------------------|| 4x

G2
e||-------------------------|------------------------||
B||-------------------------|------------------------||
G||--7--7--7--7--5--5--5--5-|--------------7---------||
D||--7--7--7--7--5--5--5--5-|--8--8--8--8--7---------||
A||--5--5--5--5--3--3--3—-3-|-—8-—8--8--8--5---------||
E||-------------------------|--6--6--6--6------------||
                                           Strum last chord fast and listen
        to the song for the length (differs sometimes)

G1 (when G2 plays alone)
e||-----------------------------|---------------------||
B||-------6-8-6---------5-8-5---|---------------------||
G||--7--7-------7--5--5-------5-|-------5-7-5----7----||
D||--7--7----------5--5---------|--8--8-------8--7----||
A||--5-------------3------------|--8--8----------5----||
E||-----------------------------|--6------------------||
                                              Strum last chord along with
          last chords from above


Leads (G1)
[ Tab from: http://www.guitaretab.com/m/mudhoney/79124.html ]
After main riff 1
e||------------------------------------||
B||--3---------------------------------||
G||----5-3h5-----------------5--3------||
D||----------3h5p3h5-----3h5 5--3------||
A||------------------3h5---------------||
E||------------------------------------||

After main riff 2

   3x                1x
e||----------------|-------------------------------||
B||----------------|-------------------------------||
G||-----------7—---|--5p3h5p3----------------5--3--||
D||-----------7----|----------5p3-3—3h5p3h5-—5-—3--||
A||--------3--5----|--------------5----------------||
E||--3--6----------|-------------------------------||
              ^ the well known fast-strummed chord (together with G2)

During main riff 3

e||----------|--------------------------------------||
B||--8vvvv---|----I couldn’t figure this out--------||
G||----------|--Just improvise quickly in G minor---||
D||----------|--------------------------------------||
A||----------|--------------------------------------||
E||----------|--------------------------------------||

During part 2 of main riff 3 instead of old G1 part
e||-----------------------------|-----------------||
B||-------6-6br-----------------|-----------------||
G||--7--7--------5--5-5-5br-/-\-|----------7------||
D||--7--7--------5--5-----------|--8—-8vv--7------||
A||--5--5--------3--3-----------|--8-------5------||
E||-----------------------------|--6--------------||

After main riff 3
e||------------------------------------------------||
B||------------------------------------------------||
G||--3h5p3-------3---------------------------------||
D||--------5p3p5---3p0-3p0-----3h5-----------------||
A||------------------------3h5---------------------||
E||------------------------------------------------||

Then play the 4th main riff normally without any extra leads and just play the last
for about 20 seconds
Related for Fuzzgun 91 tab
Fuzzgun 91 chords by Mudhoney