Song name
# A B C D E F G H I J K L M N O P Q R S T U V W X Y Z

Mudhoney - Running Loaded tab

 this is track of the selftiteld Mudhoney album

Inro and Verse

e-------------------------------|
b---------------------2---------|
g---------------------3---------|
d---------------------4---------|
a---6-6--------4--4-4-4--4-4-4--|
E---4-4-7p6p4--2--2-2-2--2-2-2--|

lead over the first four times played is simply
g------------|
d----6--4----|
a------------|
E------------|

last time

e-----------------|
b-----------------|
g-----------------|
d-----------------|
a---6-6---------4-|
E---4-4-7p6p4---2-|

let the F# ring twice

Chorus

e----------------------------|
b----------------------------|
g----------------------------|
d-6-6--4-4-6---8-8-8-8-8-8-8-|
a-4-4--2-2-4---6-6-6-6-6-6-6-|
E----------------------------|

Bridge1

e---------------------------|
b---------------------------|
g---------------------------|
d-6-x----------4-x----------|
a-4-x-6-6-6-6--2-x-4-4-4-4--|
E-----4-4-4-4------2-2-2-2--|

Verse
Chorus

Bridge 2

e--------------------
b
g
d-6-x----------4-x-----------2-2--4-4-4-4-4-4-|
a-4-x-6-6-6-6--2-x-4-4-4-4---2-2--4-4-4-4-4-4-|
E-----4-4-4-4------2-2-2-2---0-0--2-2-2-2-2-2-|

last  time played

e---------------------------------------------|
b---------------------------------------------|
g---------------------------------------------|
d-6-x----------4-x-----------2-2--4-----------|
a-4-x-6-6-6-6--2-x-4-4-4-4---2-2--4-----------|
E-----4-4-4-4------2-2-2-2---0-0--2-----------|

Outro same as Intro
Tap to rate this tab
 
# A B C D E F G H I J K L M N O P Q R S T U V W X Y Z