Song name
# A B C D E F G H I J K L M N O P Q R S T U V W X Y Z

Mudhoney - Drinking For Two tab

Drinking for Two by mudhoney


Intro  (play 6 times)
|------------------------|
|------------------------|
|------------------------|
|------------------------|
|---5-5-5-3-5-3----------|
|-5-------------3-1-3----|


Pre-Chorus (play 2 times)
|----------------------------|
|----------------------------|
|-------------9-9-9-7-7-7----|
|-7-7-7-9-9-9-9-9-9-7-7-7----|
|-7-7-7-9-9-9-7-7-7-5-5-5----|
|-5-5-5-7-7-7----------------|


Chorus (play 4 times)
|--------------|
|--------------|
|--------------|
|--------------|
|-5-3-5-3------|
|---------3----|


thats it
Tap to rate this tab
# A B C D E F G H I J K L M N O P Q R S T U V W X Y Z