Song name
# A B C D E F G H I J K L M N O P Q R S T U V W X Y Z

Mudhoney - A Thousand Forms Of Mind tab

First tab...woot woot, here it goes, its by mudhoney, so rememeber, TON OF FUZZ and tone on medium

by the way if you actually like them enough to play this, email me sayonara_deathship@yahoo.com


*you can get the sound it starts off with with a basic phaser or flanger
(main verse)
-----------------------------------------------------------------------------|
E|---------------------------------------------------------------------------|
A|3/555/33/5-1/333-00--------------------------------------------------------|
D|5/777/55/7-3/555-22--------------------------------------------------------|
G|5/777/55/7-3/555-22-----------------(9^-7~)--------------------------------|
B|---------------------------------------------------------------------------|
e|---------------------------------------------------------------------------|

this is the "Stand behind me, get back all you devils"

E|---------------|-------------------------6-|
A|111111-555555--|4---------9--------------8-|
D|333333-777777--|6-9^9^9-7---7-9^-7-9-9^-7--|
G|333333-777777--|6--------------------------|
B|---------------|---------------------------|
e|---------------|---------------------------|

Played in the background while main riff is played

E|-------------------------------------------------------------------------|
A|-------------------------------------------------------------------------|
D|-------------------------------------------------------------------------|
G|10~-10-9-7-10^-9-7-10-10-10-12-12-12------13-11h9-13h11h9-13h9h11h9------|
B|------------------------------------13~^14---------------------------15*-|
e|-------------------------------------------------------------------------|

E|------------------------|  /|      |_______----------|      | \
A|------------------------| / |      ||      ----------|      |  \
D|------------------------|/  |      ||      ----------|      |   \
G|-------------12-13^-13^-|\  |  /\  ||------||--------|   /
B|13-15-13-12-------------| \ | /  \ ||      ----------|      |  /
e||-----------------------|  \|/    \||      ----------|      | /


thats about it, the undertone stuff isnt too on, but if u time it right it sounds good, 
i dunno about the wah part, play arounds with it, and youll hit it eventually, i dont 
have a wah pedal or else id tab it too.

sorry please rate and tell me what u think
Tap to rate this tab
 
# A B C D E F G H I J K L M N O P Q R S T U V W X Y Z