Song name
# A B C D E F G H I J K L M N O P Q R S T U V W X Y Z

Mudvayne - All That You Are tab

Tuning: Drop C

Key:X = mute
    h = hammer-on
    p = pull-off
    r = let ring
I changed the Intro to fit the sound and to make the fingerings easier for some guitarist.
Intro (clean): let ring
D|------------------------|------------------------|
A|-------4-----------4----|-------6----------------|
F|-----7---7-------7---7--|-----7---6---------2----| 8 times
C|------------------------|-----------------3---3--|
G|------------------------|------------------------|
C|-5-----------5----------|-8-----------8----------|
   2   4 1 4   2   4 1 4    3

D|------------------------|------------------------|
A|-------4-----------4----|-------6----------------|
F|-----7---7-------7---7--|-----7---6--------------|
C|------------------------|------------------------|
G|------------------------|------------------------|
C|-6-----------6----------|-8----------------------|
   3   4 1 4   3   4 1 4    3
Tap to rate this tab
# A B C D E F G H I J K L M N O P Q R S T U V W X Y Z