Song name
# A B C D E F G H I J K L M N O P Q R S T U V W X Y Z

Mudvayne - Closer tab

this is my first tab and by ear (:  
im gettin the rest i just want 
everyone to enjoy a part of this song (:  
feel free to comment and correct
me and add on to the song.
Well here it is New song Closer

Intro: lighty palm muted
 d|---------------------------------------------|
 a|---------------------------------------------|
 f|---------------------------------------------|
 c|---------------------------------------------|
 g|--10--10--10--10--10--10--15--10-------------|
 C|----10--10--10--10--10--10--10--10-----------|
pm   . . . . . . . . . . . . . . . .

                      Heavy palm mute (faster paced)
 |-----------------| |-------------------|
 |-----------------| |-------------------|
 |-----------------| |-------------------|
 |-----------------| |-------------------|
 |--9---9---9---9--| |---4-3-0-3-2-0-1-0-|
 |----9---9---9----| |---4-3-0-3-2-0-1-0-|
pm  . . . . . . .     PM . . . . . . . .


 d|---------------------------------------------|
 a|---------------------------------------------|
 f|---------------------------------------------|
 c|---------------------------------------------|
 g|--10--10--10--10--10--10--15--10-------------|
 C|----10--10--10--10--10--10--10--10-----------|
pm   . . . . . . . . . . . . . . . .


 |------------------------------|
 |------------------------------|
 |------------------------------|
 |------------------------------|
 |--9---9---9---9---7---7---7---|
 |----9---9---9---9---7---7---7-|  Repeat all x2 
pm  . . . . . . . . . . . . . .    im figuring out the rest of the song 
                                   no worries (: should be up soon guys
Tap to rate this tab
# A B C D E F G H I J K L M N O P Q R S T U V W X Y Z