Song name
# A B C D E F G H I J K L M N O P Q R S T U V W X Y Z

Mudvayne - Scream With Me tab

Scream with me - Mudvayne
new single from mudvayne
i will admit i didnt ear this i am simply getting the guitar pro file
and posting it on the site because this song is amazing and people
should definetly learn this song

Drop c tuning

main riff

e---------------------------------------------|
b---------------------------------------------|
g---------------------------------------------|
d-----5-----5---------------------------------|
a-------------3h5---8p5-5---8p5-5---5---8p5-5-|
e-0h3---3h5-------0-------0-------0---0-------|

e--------------------------------------------|
b--------------------------------------------|
g--------------------------------------------|
d-----5----5---------------------------------|
a------------3h5---8p5-5---8p5-5---7---8p5-5-|
e-0h3--3h5-------0-------0-------0---0-------|

prechorus

e-----------------------------------|
b-----------------------------------|
g-----------------------------------|
d-5-5-5-5-5-10-10-10-10-8-8-8-8-7-7-|
a-3-3-3-3-3--8--8--8--8-5-5-5-5-5-5-|
e-3-3-3-3-3--8--8--8--8-5-5-5-5-5-5-|

1st chorus

e-------------------------------------|
b-------------------------------------|
g-----5-5-5-5-5-5-5-----5-5-5-5-5-5-5-|
d-0-0-5-5-5-5-5-5-5-0-0-5-5-5-5-5-5-5-|
a-0-0-3-3-3-3-3-3-3-0-0-3-3-3-3-3-3-3-|
e-0-0---------------0-0---------------|

e---------------------------------------------------|
b---------------------------------------------------|
g-----5-5-5-5-5-5-5---------------------------------|
d-0-0-5-5-5-5-5-5-5---------------------------------|
a-0-0-3-3-3-3-3-3-3-3/5-5-5-3-3-3/8-8-8-7-7-7-3-3-3-|
e-0-0---------------3/5-5-5-3-3-3/8-8-8-7-7-7-3-3-3-|

and back to the main riff and the prechorus now time for the
2nd chorus its a really pimpin lick right here

e---------------------------------------------|
b-10-8----8-10-8----8-13-10-------10----------|
g------10--------10---------12-10----12-10----|
d------------------------------------------12-|
a---------------------------------------------|
e---------------------------------------------|

now heres the bridge before the solo

e---------------------------------|
b---------------------------------|
g---------------------------------|
d---------------------------------|
a-5-5-5-5-5-5-5-5-8-5-5-5-5-5-5/3-|
e-5-5-5-5-5-5-5-5-8-5-5-5-5-5-5/3-|
    . . .   . . .   . .   . .


e-----------------------------------|
b-----------------------------------|
g-----------------------------------|
d-----------------------------7-7-7-|
a-3-3-3-3-3-3-3-3-5-5-3-3-3-3-5-5-5-|
e-3-3-3-3-3-3-3-3-5-5-3-3-3-3-------|
    . . .   . . . . . . . . .

e-----------------------------------|
b-----------------------------------|
g-----------------------------------|
d-----------------------------7-7-7-|
a-6-6-6-6-6-6-6-6-8-8-6-6-6-6-5-5-5-|
e-6-6-6-6-6-6-6-6-8-8-6-6-6-6-------|
    . . .   . . . . . . . . .

e-----------------------------------|
b-----------------------------------|
g-----------------------------------|
d-----------------------------5-5-5-|
a-1-1-1-1-1-1-1-1-3-3-1-1-1-1-3-3-3-|
e-1-1-1-1-1-1-1-1-3-3-1-1-1-1-------|
    . . .   . . . . . . . . .

now time for the solo

e-------------------------|
b--8------11------6-------|
g-10b(12)-13b(15)-8b(10)--|
d-------------------------|
a-------------------------|
e-------------------------|

e---------------------------------------------------|
b-8-11-------------------11-13-11-------11-13-14-15-|
g------10-------10-12-13----------12-13-------------|
d---------10-12-------------------------------------|
a---------------------------------------------------|
e---------------------------------------------------|

e----------------------------------11-------|
b-----15-------13-------11---------13b(15)--|
g-13~----13-12----12-10----10-8/14----------|
d-------------------------------------------|
a-------------------------------------------|
e-------------------------------------------|

this next bit is just going through a d and c chord

as so

e-----2---|
b-----3-1-|
g-----2-0-|
d-0-0-0-2-|
a-0-0-0-3-|
e-0-0-0---|

find the strumming pattern yourself
and heres the end bit chorus is pretty much the same
except for this lil diddly at the end

e-----------------------------------------|
b-----------------------------------------|
g-----------------------------------------|
d-----------------------------------------|
a-3/5-5-5-3-3-3/8-8-8-7-7-7-7-8-10-12-0-0-|
e-3/5-5-5-3-3-3/8-8-8-7-7-7-7-8-10-12-0-0-|
Tap to rate this tab
# A B C D E F G H I J K L M N O P Q R S T U V W X Y Z