Mudvayne - Never Enough tab

-------------------------------------------------------------------------------
			     NEVER ENOUGH - Mudvayne
-------------------------------------------------------------------------------
Tabbed by:cdyt7717
Email:Codythomas77@yahoo.com
I was just messin around and I figured it out. I'm not sure if its %100. thought id post 
it up see if it would help anyone else tab the whole song. I might add the rest if i 
feel like it later but for now, Good Luck! :)
Tuning:CGCFAD (Drop C)

Intro: played twice
D|-6--6-6--5-5--5-5-5-5----------------------------------------------------|
A|-5--5-5--4-4--4-4-4-4----------------------------------------------------|
F|-3--3-3--2-2--2-2-2-2-5--5-5-X-X-7--7-7----------------------------------|
C|----------------------3--3-3-X-X-5--5-5-3-5-0----------------------------|
G|----------------------3--3-3-X-X-5--5-5-3-5-0----------------------------|
C|----------------------3--3-3-X-X-5--5-5-3-5-0----------------------------|

D|-6--6-6--5-5--5-5-5-5----------------------------------------------------|
A|-5--5-5--4-4--4-4-4-4----------------------------------------------------|
F|-3--3-3--2-2--2-2-2-2-5--5-5-X-X-7--7-7--7-7-7---------------------------|
C|----------------------3--3-3-X-X-5--5-5--5-5-5---------------------------|
G|----------------------3--3-3-X-X-5--5-5--5-5-5---------------------------|
C|----------------------3--3-3-X-X-5--5-5--5-5-5---------------------------|



************************************

| /   slide up
| \   slide down
| h   hammer-on
| p   pull-off
| ~   vibrato
| +   harmonic
| x   Mute note
| b   Bend
| pb  Pre-bend
| br  Bend release
| pbr Pre-bend release
| brb Bend release bend

************************************
Tap to rate this tab
 
# A B C D E F G H I J K L M N O P Q R S T U V W X Y Z