Mudvayne - A New Game tab

All Guitars Dropped C [CGCFAD]


Intro (x2)
|------------------------------|------------------------------|
|------------------------------|------------------------------|
|------------------------------|------------------------------|
|------------------------------|------------------------------|
|------------------------------|------------------------------|
|5-4-4-7-4-4-5-4-4-7-4-4-5-4---|5-4-4-7-4-4-5-4-4-7-4-4-5-4---|


|------------------------------|------------------------------------|
|------------------------------|------------------------------------|
|------------------------------|------------------------------------|
|------------------------------|------------------------------------|
|------------------------------|------------------------------------|
|5-4-4-7-4-4-5-4-4-7-4-4-5-4---|10-8-7-10-8-7-10-8-7-10-8-7-3-3-3-3-|


Second time lead part, with wah

|--------------------------------------------|
|--------------------------------------------|
|12-12-12-12-12-12-12-12-12-12-12-12-12-12---|
|16-16-16-16-16-16-16-16-16-16-16-16-16-16---|
|--------------------------------------------|
|--------------------------------------------|



 Verse

|-------------------------------|-------------------------------|
|-------------------------------|-------------------------------|
|-------------------------------|-------------------------------|
|-------------------------------|-------------------------------|
|-------------------------------|-------------------------------|
|-5-4-4-7-4-4-5-4-4-7-4-4-5-4---|5-4-4-7-4-4-5-4-4-7-4-4-5-4----|

|------------------------------|------------------------------------|
|------------------------------|------------------------------------|
|------------------------------|------------------------------------|
|------------------------------|------------------------------------|
|------------------------------|------------------------------------|
|5-4-4-7-4-4-5-4-4-7-4-4-5-4---|10-8-7-10-8-7-10-8-7-10-8-7-3-3-3-3-|
PM. . . . . . . . . . . . . .    . . . . . . . . . . . . . .     


|-------------------------------|-------------------------------|
|-------------------------------|-------------------------------|
|-------------------------------|-------------------------------|
|-------------------------------|-------------------------------|
|-------------------------------|-------------------------------|
|-5-4-4-7-4-4-5-4-4-7-4-4-5-4---|5-4-4-7-4-4-5-4-4-7-4-4-5-4----|

|------------------------------|------------------------------------|
|------------------------------|------------------------------------|
|------------------------------|------------------------------------|
|------------------------------|------------------------------------|
|------------------------------|------------------------------------|
|5-4-4-7-4-4-5-4-4-7-4-4-5-4---|10-8-7-10-8-7-10-8-7-10-8-7-3-3-3-3-|
PM. . . . . . . . . . . . . . . .  . . . . . . . . . . . . . . . .  . 


(x2)
|------------------------------|------------------------------|
|------------------------------|------------------------------|
|------------------------------|------------------------------|
|------------------------------|------------------------------|
|5p4-4-7p4-4-5p4-4-7p4-4-5p4---|5p4-4-7p4-4-5p4-4-7p4-4-5p4---|
|5p4-4-7p4-4-5p4-4-7p4-4-5p4---|5p4-4-7p4-4-5p4-4-7p4-4-5p4---|

|------------------------------|--------------------------------|
|------------------------------|--------------------------------|
|------------------------------|--------------------------------|
|------------------------------|--------------------------------|
|5p4-4-7p4-4-5p4-4-7p4-4-5p4---|5p4-4-7p4-4---------------------|
|5p4-4-7p4-4-5p4-4-7p4-4-5p4---|5p4-4-7p4-4-3-3-3-3-3-3-3-3-3-3-|




Chorus
 
|--------------------------------|---------------------------------|
|--------------------------------|---------------------------------|
|--------------------------------|---------------------------------|
|--------------------------------|---------------------------------|
|--------------------------------|---------------------------------|
|4-1-1-4-1-1-4-1-4-1-1-4-1-1-4-1-|5-4-4-5-4-4-5-4/8-7-7-8-7-7-8-7--|

|--------------------------------|-----------------------------------|
|--------------------------------|-----------------------------------|
|--------------------------------|-----------------------------------|
|--------------------------------|-----------------------------------|
|--------------------------------|-----------------------------------|
|4-1-1-4-1-1-4-1-4-1-1-4-1-1-4-1-|5-4-4-5-4-4-5-4/10-9-9-10-9-9-10-9-|


 First Ending               Second Ending
|------------------------||----------------------------||
|------------------------||----------------------------||
|------------------------||----------------------------||
|------------------------||----------------------------||
|------------------------||----------------------------||
|11-10-10-11-10-10-11-10-||11-10-10-11-10-10-11--------||


Play the whole form twice, play the second ending of the chorus the second time.
The next section starts on open C, but I haven't gotten any farther on it yet.
Tap to rate this tab
 
# A B C D E F G H I J K L M N O P Q R S T U V W X Y Z