Guitaretab - guitar tabs
Song name
# A B C D E F G H I J K L M N O P Q R S T U V W X Y Z

Mudvayne - Know Forever tab

(K)now (F)orever-Mudvayne
L.D. 50

Drop B:
B F# B E G# C#

* = trem pick

Intro: (0:00) pm

e-----------------------------------------------------------------
b-----------------------------------------------------------------
g-----------------------------------------------------------------
d-----------------------------------------------------------------
a---------2---------------2-----------2-------------------2-------
d-3-3-3-3---3-----3-3-3-3---3-3-3-3-3---3---------3-3-3-3---3-3-3-

e-------------------------------------------------
b-------------------------------------------------
g-------------------------------------------------
d-------------------------------------------------
a-----2-------------------2-------------2---------
d-3-3---3---------3-3-3-3---3-3-3-3-3-3---3-------

(0:09) x2

e-----------------------------------------------------------------
b-----------------------------------------------------------------
g-----------------------------------------------*19*12*-----------
d---------------------------6-6-6-----------------------*19*12*---
a---------2-----------2-----5-5-5---------2-----------------------
d-3-3-3-3---3-3-3-3-3---3-0-------3-3-3-3---3---------------------

e-----------------------------------------------------------------
b-------------------------------------------------8/9\8/9-8/9\8/9-
g-------------------------------------------------x-x-x-x-x-x-x-x-
d---------------------------6-6-6-----------------5/6\5/6-5/6\5/6-
a---------2-----------2-----5-5-5---------2-----------------------
d-3-3-3-3---3-3-3-3-3---3-0-------3-3-3-3---3p0-------------------

(0:31)

e-----------------------------------------------------------------
b-0-------------------------------0-------------------------------
g-5-------------------------------5-----------------------4-4-4-4-
d---------------------------------------------------------x-x-x-x-
a---6-0-5/6-0-6\5-0-0---0-0---0-0---6-0-5/6-0-6\5-0-0---0-2-2-2-2-
d---6-0-5/6-0-6\5-0-0---0-0---0-0---6-0-5/6-0-6\5-0-0---0---------

e-----------------------------------------------------------------
b-0-------------------------------0-------------------------------
g-5-------------------------------5-----------------------4-4-4-4-
d---------------------------------------------------------x-x-x-x-
a---6-0-5/6-0-6\5-0-0----0-0--------6-0-5/6-0-6\5-0-0---0-2-2-2-2-
d---6-0-5/6-0-6\5-0-0----0-0--------6-0-5/6-0-6\5-0-0---0---------

e---------------------------
b---------------------------
g-5-------------------------
d-x-------------------------
a-3-------------------------
d---0---0---0--66-0---------

Verse 1: (0:45) pm
x2
e-----------------------------------------------------------------
b-----------------------------------------6-6---------6-6---------
g-----------------------------------------4-4---------4-4---------
d-----------------------------------------------------------------
a-3h5-5-5-5-5-6-6-6-3-3-3-5-2-2-2-2-2-2-2-----2-2-2-2-----2-2-2-2-
d-----------------------------------------------------------------

(1:08)
e-----------------------------------------------------------------
b-----------------------------------------------------------------
g-----------------------------------------------------------------
d-----------------------------------------9-----------9-----------
a-3h5-5-5-5-5-6-6-6-3-3-3-5-2-2-2-8-8-8-8---8-8-8-8-8---8---------
d-----------------------------------------------------------------

(1:13) 
x3
e-----------------------------------------------------------------
b-----------------------------------------6-6---------6-6---------
g-----------------------------------------4-4---------4-4---------
d-----------------------------------------------------------------
a-3h5-5-5-5-5-6-6-6-3-3-3-5-2-2-2-2-2-2-2-----2-2-2-2-----2-2-2-2-
d-----------------------------------------------------------------

(1:30)

x2
e-----------------------------------------------------------------
b-----------------------------------------------------------------
g---------------------------------4-4-4-4-4-4-----4-4-4-4---------
d---------------------------------4-4-4-4-4-4-----4-4-4-4---------
a-3h5-5-5-5-5-6-6-6-3-3-3-5-2-2-2-2-2-2-2-2-2-----2-2-2-2---------
d-----------------------------------------------------------------

Chorus: x2 (1:35)

e-----------------------------------------------------------------
b-0-------------------------------0-------------------------------
g-5-------------------------------5-----------------------4-4-4-4-
d---------------------------------------------------------x-x-x-x-
a---6-0-5/6-0-6\5-0-0---0-0---0-0---6-0-5/6-0-6\5-0-0---0-2-2-2-2-
d---6-0-5/6-0-6\5-0-0---0-0---0-0---6-0-5/6-0-6\5-0-0---0---------

e-----------------------------------------------------------------
b-0-------------------------------0-------------------------------
g-5-------------------------------5-----------------------4-4-4-4-
d---------------------------------------------------------x-x-x-x-
a---6-0-5/6-0-6\5-0-0----0-0--------6-0-5/6-0-6\5-0-0---0-2-2-2-2-
d---6-0-5/6-0-6\5-0-0----0-0--------6-0-5/6-0-6\5-0-0---0---------

Verse 2: (1:57) pm
x2
e-----------------------------------------------------------------
b-----------------------------------------6-6---------6-6---------
g-----------------------------------------4-4---------4-4---------
d-----------------------------------------------------------------
a-3h5-5-5-5-5-6-6-6-3-3-3-5-2-2-2-2-2-2-2-----2-2-2-2-----2-2-2-2-
d-----------------------------------------------------------------

(2:08)
e-----------------------------------------------------------------
b-------12--------------------------------------------------------
g----10-----------------------------------------------------------
d-/9--------------------------------------------------------------
a-----------------------------------------------------------------
d-----------------------------------------------------------------

e-----------------------------------------------------------------
b-----------------------------------------------------------------
g---------------------------------4-4-4-4-----4-4-4-4-----4-4-----
d---------------------------------4-4-4-4-----4-4-4-4-----4-4-----
a-3h5-5-5-5-5-6-6-6-3-3-3-5-2-2-2-2-2-2-2-----2-2-2-2-----2-2-----
d-----------------------------------------------------------------

Chorus: (2:19)

e-----------------------------------------------------------------
b-0-------------------------------0-------------------------------
g-5-------------------------------5-----------------------4-4-4-4-
d---------------------------------------------------------x-x-x-x-
a---6-0-5/6-0-6\5-0-0---0-0---0-0---6-0-5/6-0-6\5-0-0---0-2-2-2-2-
d---6-0-5/6-0-6\5-0-0---0-0---0-0---6-0-5/6-0-6\5-0-0---0---------

e-----------------------------------------------------------------
b-0-------------------------------0-------------------------------
g-5-------------------------------5-----------------------4-4-4-4-
d---------------------------------------------------------x-x-x-x-
a---6-0-5/6-0-6\5-0-0----0-0--------6-0-5/6-0-6\5-0-0---0-2-2-2-2-
d---6-0-5/6-0-6\5-0-0----0-0--------6-0-5/6-0-6\5-0-0---0---------

(2:30) x2

e-----------------------------------------------------------------
b-----------------------------------------------------------------
g-4-4-4-4-4-4-5-5-5-5-5-5-5-5-5-5/7-7-7-7-7-7-7-5-5-5-5-5-5-5-5-5-
d-x-x-x-x-x-x-x-x-x-x-x-x-x-x-x-x-x-x-x-x-x-x-x-x-x-x-x-x-x-x-x-x-
a-2-2-2-2-2-2-3-3-3-3-3-3-3-3-3-3/5-5-5-5-5-5-5-3-3-3-3-3-3-3-3-3-
d-----------------------------------------------------------------

(2:41) x3
[ Tab from: http://www.guitaretab.com/m/mudvayne/28849.html ]
e-----------------------------------------------------------------
b-----------------------------------------------------------------
g-4-4-4-4/7\4-4-4-4/5-5-5-5-5-5-5-5/7-7-7-7/8\7-7-7-5-5-5-5-5-5-5-
d-x-x-x-x-x-x-x-x-x-x-x-x-x-x-x-x-x-x-x-x-x-x-x-x-x-x-x-x-x-x-x-x-
a-2-2-2-2/5\2-2-2-2/3-3-3-3-3-3-3-3/5-5-5-5/6\5-5-5-3-3-3-3-3-3-3-
d-----------------------------------------------------------------

(2:58)
Chorus:

x3
e-----------------------------------------------------------------
b-0-------------------------------0-------------------------------
g-5-------------------------------5-----------------------4/5-5/7-
d---------------------------------------------------------x-x-x-x-
a---6-0-5/6-0-6\5-0-0---0-0---0-0---6-0-5/6-0-6\5-0-0---0-2/3-3/5-
d---6-0-5/6-0-6\5-0-0---0-0---0-0---6-0-5/6-0-6\5-0-0---0---------

then,

e-----------------------------------------------------------------
b-0---------------------------------------------------------------
g-5-----------------------4-4-4-4-7-------------------------------
d-------------------------x-x-x-x-x-------------------------------
a---6-0-5/6-0-6\5-0-0---0-2-2-2-2-5-------------------------------
d---6-0-5/6-0-6\5-0-0---0-----------0---0---0--66-0---------------

(3:19)                                   (3:27)
x3
e-------------------------------------   -------------------------
b-------------------------------------   -------------------------
g-------------------------------------   -------------------------
d-------------------------------------   -------------------------
a-------------------------------------   -------------------------
d-6-0-0-0----0-0----0-0----0-0---0-0--   -6-0-0-0----0-0----------

(3:30)
x8
e-------------------------------------
b-------------------------------------
g-------------------------------------
d-------------------------------------
a-------------------------------------
d-6-0-0-0----0-0----0-0----0-0---0-0--

(3:52)
x2
e-----------------------------------------------------------------
b-----------------------------------------------------------------
g-4-4-4-4/7\4-4-4-4/5-5-5-5-5-5-5/7-7-7-7-8\7-7-7-7\5-5-5-5-5-5-5-
d-x-x-x-x-x-x-x-x-x-x-x-x-x-x-x-x-x-x-x-x-x-x-x-x-x-x-x-x-x-x-x-x-
a-2-2-2-2/5\2-2-2-2/3-3-3-3-3-3-3/5-5-5-5-6\5-5-5-5\3-3-3-3-3-3-3-
d-----------------------------------------------------------------

(4:03)                                 (4:14)
x4
e----------------------------------    -------------------
b----------------------------------    -----12----12------
g-----------------7-7-7-7----------    -----10----10------
d-----------------x-x-x-x----------    ------9-----9------
a-6-0-0-0----0-0--5-5-5-5-6-6-6-6--    -9-----------------
d-6-0-0-0----0-0----------6-6-6-6--    -9-----------------

(4:16) 
x4
e-------------------------------------------------------------
b----12---------6---------------------------------------------
g----10---------4---------------------------------------------
d-----9---------3---------------------------------------------
a-9--------3---------1---1-1-3-3--1----1-----------1----------
d-9--------3---------1---1-1-3-3--1--3---3p1-3---3---3p1-3p1--

(4:39)

e---------------------------
b-----12--12-----1212---12--
g-----10--10-----1010---10--
d------9---9------9-9----9--
a-9------------9-------9----
d-9------------9-------9----

(4:41)
x4
e-------------------------------------------------------------
b-----12--12-----1212---12-----12--12-------12--12------------
g-----10--10-----1010---10-----10--10-------10--10------------
d------9---9------9-9----9------9---9--------9---9---10--10---
a-9------------9-------9----9----------9-------------10--10---
d-9------------9-------9----9----------9-------------10--10---

(5:03)

e----------------------
b----12---------12-----
g----10-------10-------
d-----9------9---------
a-9---------9----------
d-9--------9-----------

(5:06)

e-----------------------------------------------------------------
b-----------------------------------------6-6---------6-6---------
g-----------------------------------------4-4---------4-4---------
d-----------------------------------------------------------------
a-3h5-5-5-5-5-6-6-6-3-3-3-5-2-2-2-2-2-2-2-----2-2-2-2-------------
d-----------------------------------------------------------------

Verse 3: (5:12)
x2
e-----------------------------------------------------------------
b-----------------------------------------6-6---------6-6---------
g-----------------------------------------4-4---------4-4---------
d-----------------------------------------------------------------
a-3h5-5-5-5-5-6-6-6-3-3-3-5-2-2-2-2-2-2-2-----2-2-2-2-----2-2-2-2-
d-----------------------------------------------------------------

(5:23)
x2
e-----------------------------------------------------------------
b-----------------------------------------------------------------
g-----------------------------------------------------------------
d-----------------------------------------9-----------9-----------
a-3h5-5-5-5-5-6-6-6-3-3-3-5-2-2-2-8-8-8-8---8-8-8-8-8---8-8-8-8-8-
d-----------------------------------------------------------------

then,

e-----------------------------------------------------------------
b-----------------------------------------------------------------
g-----------------------------------------------------------------
d-----------------------------------------------------------------
a-3h5-5-5-5-5-6-6-6-3-3-3-5-2-2-2---------------------------------
d---------------------------------0-0-0-0-------------------------

e-----------------------------------------------------------------
b-----------------------------------------------------------0-----
g-----------------------------------------------------------5-----
d-----------------------------------------------------------------
a-3h5-5-5-5-5-6-6-6-3-3-3-5-2-2-2---------------------------------
d---------------------------------0-0-0-0-------------------------

e-----------------------------------------------------------------
b-----------------------------------------------------------------
g-----------------------------------------------------------------
d-----------------------------------------------------------------
a-3h5-5-5-5-5-6-6-6-3-3-3-5-2-2-2-------------0----0----0---------
d---------------------------------0-0-0-0-----0----0----0---------

e-----------------------------------------------------------------
b-----------------------------------------------------------------
g-----------------------------------------------------------------
d-----------------------------------------------------------------
a-3h5-5-5-5-5-6-6-6-3-3-3-5-2-2-2-0-0-0-0----0-0---0----0-0---0---
d---------------------------------0-0-0-0----0-0---0----0-0---0---

(5:57)
Chorus:
x2
e-----------------------------------------------------------------
b-0-------------------------------0-------------------------------
g-5-------------------------------5-----------------------4-4-4-4-
d---------------------------------------------------------x-x-x-x-
a---6-0-5/6-0-6\5-0-0---0-0---0-0---6-0-5/6-0-6\5-0-0---0-2-2-2-2-
d---6-0-5/6-0-6\5-0-0---0-0---0-0---6-0-5/6-0-6\5-0-0---0---------

then,

e-------------------------------------------------------------
b-0--------------------------0--------------------------------
g-5--------------------------5-----------------------4-4-4-4--
d----------------------------------------------------x-x-x-x--
a---6-0-5/6-0-6\5-0-0---0-0----0-7-5/6-0-6\5-0-0---0-2-2-2-2--
d---6-0-5/6-0-6\5-0-0---0-0----0-7-5/6-0-6\5-0-0---0----------

e---------------------------
b---------------------------
g-5-------------------------
d-x-------------------------
a-3-------------------------
d---0---0---0--66-0---------

Outro: (6:17)
repeat till fade,   31 isnít fret 31, itís 3-1 faster

pm
e---------------------------------
b---------------------------------
g------------------------------4--
d------------------------------x--
a------------------------------2--
d-3-2-1-3-2-1-3-0-31-1-1-3-1-0----

e---------------------------------------
b---------------------------------------
g---------------------------------------
d---------------------------------------
a---------------------------------------
d-3-2-1-3-2-1-3-0-31-0-0-31-0-0-31-0-0--

thatís all

trevor jones
timmy91199@yahoo.ca
Related for Know Forever tab