Song name
# A B C D E F G H I J K L M N O P Q R S T U V W X Y Z

Mudvayne - Silenced tab

Band - Mudvayne
Song - Silenced
Album - The End Of All Things To Come (2002)
Tuning - CGCFAD

Intro - Guitar 1
|--------------------------------------------------------|
|--------------------------------------------------------|
|--------------------------------------------------------|
|--------------------------------------------------------|
|-----5----------5----------------5----------5-----------|
|-0h3---6-0--0h3---6-0--0--0--0h3---6-0--0h3---6-0--0--0-|

|--------------------------------------------------|
|--------------------------------------------------|
|--------------------------------------------------|
|--------------------------------------------------|
|-----5----------5----------------5----------5-----|
|-0h3---6-0--0h3---6-0--0--0--0h3---6-0--0h3---6-0-|

Guitars 2 & 3
|--------------------------------------------------------|
|--------------------------------------------------------|
|--------------------------------------------------------|
|-----5----------5----------------5----------5-----------|
|-0h3-5-6-0--0h3-5-6-0--0--0--0h3-5-6-0--0h3-5-6-0--0--0-|
|-0h3---6-0--0h3---6-0--0--0--0h3---6-0--0h3---6-0--0--0-|

Chorus
|--------------------------------------------------------|
|--------------------------------------------------------|
|--------------------------------------------------------|
|-----5----------5----------------5----------5-----------|
|-0h3-5-6-0--0h3-5-6-0--0--0--0h3-5-6-0--0h3-5-6-0--0--0-|
|-0h3---6-0--0h3---6-0--0--0--0h3---6-0--0h3---6-0--0--0-|

Pre-Verse - Guitar 2
|----------------------|
|----------------------|
|----------------------|
|----------------------|
|-0-0-0-0------3-3-3-3-|
|-0-0-0-0------3-3-3-3-|
  . . . .      . . . .

Verse
|-------------------------------------|
|-------------------------------------|
|-----------0---0---0-----------0-----|
|---------4---4---4-----------5---5-4-|
|-0-0-0-0-------------3-3-3-3---------|
|-0-0-0-0-------------3-3-3-3---------|
  . . . .             . . . .

|-------------------------------------|
|-------------------------------------|
|-----------0---0---0-----------0-----|
|---------4---4---4-----------5---5-4-|
|-0-0-0-0-------------3-3-3-3---------|
|-0-0-0-0-------------3-3-3-3---------|
  . . . .             . . . .

Pre-Verse
|---------|
|---------|
|---------|
|---------|
|-0-0-0-0-|
|-0-0-0-0-|
  . . . .

Verse
|-------------------------------------|
|-------------------------------------|
|-----------0---0---0-----------0-----|
|---------4---4---4-----------5---5-4-|
|-0-0-0-0-------------3-3-3-3---------|
|-0-0-0-0-------------3-3-3-3---------|
  . . . .             . . . .

Chorus - Guitars 2 & 3
|--------------------------------------------------------|
|--------------------------------------------------------|
|--------------------------------------------------------|
|-----5----------5----------------5----------5-----------|
|-0h3-5-6-0--0h3-5-6-0--0--0--0h3-5-6-0--0h3-5-6-0--0--0-|
|-0h3---6-0--0h3---6-0--0--0--0h3---6-0--0h3---6-0--0--0-|

Bridge
|-------------------------------------------------------------------------|
|---------6---------6-------------6---------6-------------6---------6-----|
|-------------------------------------------------------------------------|
|-------------------------------------------------------------------------|
|-6p5-5-5---6p5-5-5---6p5-6p5-5-5---6p5-5-5---6p5-6p5-5-5---6p5-5-5---6p5-|
|-------------------------------------------------------------------------|

|-----------------------------------------------------------------|
|-----------------------------------------------------------------|
|-----------------------------------------------------------------|
|-x-x-x-x-x-x-x-x-x-x-x-x-x-x-x-x-x-x-x-x-x-x-x-x-x-x-x-x-x-x-x-x-|
|-x-x-x-x-x-x-x-x-x-x-x-x-x-x-x-x-x-x-x-x-x-x-x-x-x-x-x-x-x-x-x-x-|
|-x-x-x-x-x-x-x-x-x-x-x-x-x-x-x-x-x-x-x-x-x-x-x-x-x-x-x-x-x-x-x-x-|
  . . . . . . . . . . . . . . . . . . . . . . . . . . . . . . . .

|-----------------------------|
|-----------------------------|
|-----------------------------|
|-1p0-0-0-0-0-1p0-0-0-0-0-1p0-|
|-1p0-0-0-0-0-1p0-0-0-0-0-1p0-|
|-1p0-0-0-0-0-1p0-0-0-0-0-1p0-|

Guitar 2
|------------------------------|
|------------------------------|
|------------------------------|
|------------------------------|
|-1-0-0-0-1-0-0-0------1-0-0-0-|
|-1-0-0-0-1-0-0-0------1-0-0-0-|
  . . . . . . . .      . . . .

|-----------------------------------------|
|-----------------------------------------|
|-----------------------------------------|
|-----------------------------------------|
|-1-0-0-0------1-0-0-0-1-0-0-0--0-0--0--0-|
|-1-0-0-0------1-0-0-0-1-0-0-0--0-0--0--0-|
  . . . .      . . . . . . . .  . .  .  .

Guitars 2 & 3
|---------------------|
|---------------------|
|---------------------|
|---------------------|
|-1p0-0-0-1p0-0-0-1p0-|
|-1p0-0-0-1p0-0-0-1p0-|

|-------------------------------------------------|
|-------------------------------------------------|
|-----------------------7-----------------------7-|
|-------------------------------------------------|
|-1p0-0-0-1p0-0-0h1-1p0-5-1p0-0-0-1p0-0-0h1-1p0-5-|
|-1p0-0-0-1p0-0-0h1-1p0---1p0-0-0-1p0-0-0h1-1p0---|

Pre-Verse - Guitar 3
|----------------------|
|----------------------|
|----------------------|
|----------------------|
|-0-0-0-0------3-3-3-3-|
|-0-0-0-0------3-3-3-3-|
  . . . .      . . . .

Verse
|-------------------------------------|
|-------------------------------------|
|-----------0---0---0-----------0-----|
|---------4---4---4-----------5---5-4-|
|-0-0-0-0-------------3-3-3-3---------|
|-0-0-0-0-------------3-3-3-3---------|
  . . . .             . . . .

|-------------------------------------|
|-------------------------------------|
|-----------0---0---0-----------0-----|
|---------4---4---4-----------5---5-4-|
|-0-0-0-0-------------3-3-3-3---------|
|-0-0-0-0-------------3-3-3-3---------|
  . . . .             . . . .

Chorus - Guitars 2 & 3
|--------------------------------------------------------|
|--------------------------------------------------------|
|--------------------------------------------------------|
|-----5----------5----------------5----------5-----------|
|-0h3-5-6-0--0h3-5-6-0--0--0--0h3-5-6-0--0h3-5-6-0--0--0-|
|-0h3---6-0--0h3---6-0--0--0--0h3---6-0--0h3---6-0--0--0-|

|--------------------------------------------------|
|--------------------------------------------------|
|--------------------------------------------------|
|-----5----------5----------------5----------5-----|
|-0h3-5-6-0--0h3-5-6-0--0--0--0h3-5-6-0--0h3-5-6-0-|
|-0h3---6-0--0h3---6-0--0--0--0h3---6-0--0h3---6-0-|

Guitar 1 w/static
|--------------------------|
|--------------------------|
|--------------------------|
|-0~-----------------------|
|-0~-----------------------|
|-0~-----------------------|
Tap to rate this tab
# A B C D E F G H I J K L M N O P Q R S T U V W X Y Z