Song name
# A B C D E F G H I J K L M N O P Q R S T U V W X Y Z

Mudvayne - Solve Et Coagula tab

Help us improve GuitareTab! Take a short survey!
Song: "Solve Et Coagula"
Artist: Mudvayne
Album: The End of All Things To Come


Tuning: Drop D, 1 Step Down (C,G,C,F,A,D)

INTRO:
|---------------------------------------|
|-9-9-9-9-9-9-9-9-9-9-9-9-9-9-----------|
|-8-8-8-8-8-8-8-8-8-8-8-8-8-8--5-5--4-4-|
|-6-6-6-6-6-6-6-6-6-6-6-6-6-6--3-3--2-2-|
|------------------------------3-3--2-2-|
|------------------------------3-3--2-2-|

CHORUS:
|-----------------------------|    |--------------------|
|-----------------------------|play|--------------------|
|-----------------------------| 3X |--------------------|
|-----------------------------|then|--------------------|
|-3-3-3-0--0-2-3-2-0--0-2-3-0-|    |-3-3-3-0--0-2-3-2-0-|
|-3-3-3-0--0-2-3-2-0--0-2-3-0-|    |-3-3-3-0--0-2-3-2-0-|

VERSE:
|----------------------------------------------------|
|----------------------------------------------------|
|---------5/7--------5/7-7----------5/7--------8\7-7-|
|---------X-X--------X-X-X----------X-X--------X-X-X-|
|-0-0-0-0-3/5--0-0-0-3/5-5--0-0-0-0-3/5--0-0-0-6\5-5-|
|-0-0-0-0------0-0-0--------0-0-0-0------0-0-0-------|
pm. . . .      . . .        . . . .      . . .

VERSE B:
|---------------------------------------|
|---------------------------------------|
|-------------------------------------8-|
|-------------------------------------X-|
|-0-0-0-0-0-0--0--0--00--30--0--0--0--6-|
|-0-0-0-0-0-0--0--0--00--30--0--0--0----|
pm. . . . . .  .  .  ..  ..  .  .  .

INTERLUDE:
|-----------------------------------------------------------------|
|-----------------------------------------------------------------|
|-----------------------------------------------------------------|
|-----------------------------------------------------------------|
|-5-----------5-----------5---------------5---------------5-------|
|---3-2-0-2-3---3-2-0-2-3---3-2-0-3-3-3-3---3-3-3-2-2-2-2---2-2-2-|

INTERLUDE 2:
|-----------------------------------------------------------------|
|-----------------------------------------------------------------|
|---------------------------------5-5-5-5-5-5-5-5-4-4-4-4-4-4-4-4-|
|---------------------------------3-3-3-3-3-3-3-3-2-2-2-2-2-2-2-2-|
|-5-----------5-----------5-------3-3-3-3-3-3-3-3-2-2-2-2-2-2-2-2-|
|---3-2-0-2-3---3-2-0-2-3---3-2-0-3-3-3-3-3-3-3-3-2-2-2-2-2-2-2-2-|

|--------------------------------------------------------|
|--------------------------------------------------------|
|------------------------------------------------------5-|
|------------------------------------------------------X-|
|-5-----------5-----------5--------0-0-0h3-2-0--0--000-3-|
|---3-2-0-2-3---3-2-0-2-3---3-2-0--0-0-0h3-2-0--0--000---|

|-----------------------------------------------------------------|
|-----------------------------------------------------------------|
|---------------------------------5-5-5-5-5-5-5-5-4-4-4-4-4-4-4-4-|
|---------------------------------3-3-3-3-3-3-3-3-2-2-2-2-2-2-2-2-|
|-5-----------5-----------5-------3-3-3-3-3-3-3-3-2-2-2-2-2-2-2-2-|
|---3-2-0-2-3---3-2-0-2-3---3-2-0-3-3-3-3-3-3-3-3-2-2-2-2-2-2-2-2-|

INTERLUDE 3: (palm mute)
|---------------------------------|
|---------------------------------|
|---------------------------------|
|---------------------------------|
|-3-3-3-0-0-0-2-2-2-0-0-0-2-2-3-3-|
|-3-3-3-0-0-0-2-2-2-0-0-0-2-2-3-3-|
Related for Solve Et Coagula tab