Song name
# A B C D E F G H I J K L M N O P Q R S T U V W X Y Z

Mudvayne - Scarlet Letters tab

Hey guys, its me, im the same guy who submitted the Ver. 2 tabs, and the 4 string Dull
boy tabs in drop D, my names Dante, and ill make tabs in the future, about the tabs, when
i read them myself, i found them hard to understand with all of the repeats I put in,
plus i made a mistake in a few parts, for this tab, all you have to do is read it, no
repeats or confusing symbols, just read it, and if you listen to the song, you know
where everything goes, so heres a revised version of Scarlet Letters, By listening to
Scarlet Letters, im pretty sure this is 100% accurate.Plus i play along with the song to 
make sure the notes are right PLEASE RATE AND REVIEW, i wanna see how i do with my tabs.

Scarlet Letters
Bass
Tuning: (Low to high, 5 string) G-C-G-C-F (Drop C)

(Wait 3 seconds)
The bars are used to divide the sections in the intro.
F|-------------------------------------------------------|-----------------|
C|-------------------------------------------------------|-----------------|
G|3-------2---------0-----------------3--------3----2----|0----------------|
C|-------------5-------------2---------------------------|---------2-------|
(In order to save space, i wont put in the 5th string unless needed)
F|------------------|-------------------------------------|----------------|
C|------------------|-------------------------------------|----------------|
G|3--------2--------|0-----------------3------3/7----5----|0---------------|
C|--------------5---|---------2---------------------------|---------2------|

F|------------------|----------------------------------------------|
C|------------------|----------------------------------------------|
G|3--------2--------|0-----------------3---------------------------|
C|--------------5---|---------2------------------------------------|Intro Over)
                                       G|-------3------------------|
F|-----------------------------------------------------------------|
C|--------------------------------------------------------5-5-3-3--|
G|0-0-0-0-3-2-0-2--------------------------------------------------|
C|----------------2-2-2-2-0-2-0-3-5-5-5-5-3-5-3-5-0-0-0-0----------|
                    (Parenthases means you canuse either)
F|---------------------------------------------------------------|
C|-----------------------------------------------(0)-------------|
G|0-0-0-0-3-2-0-2--------------------------------(5)-------------|
C|----------------2-2-2-2-0-2-0-3-5-5-5-5-3-5-3-5----------------|

F|--------------------------------------------------------------|
C|--------------------------------------------------------------|
G|0-000-0-0-3-2-0-2--------------------------------2----0-3-----|
C|------------------2-222-2-2-0-2-0-3-5----5-3-0-0----------5-5-|

F|--------------------------------------------------------------|
C|--------------------------------------------------------------|
G|0-000-0-0-3-2-0-2----------------------------------/7----5----|
C|------------------2-222-2-2-0-2-0-3-5----5---5-5-5------------|
(Heres where i had my repeat in the 1st version)
F|--------------------------------------------------------------|
C|--------------------------------------------------------------|
G|0-000-0-0-3-2-0-2--------------------------------2----0-3-----|
C|------------------2-222-2-2-0-2-0-3-5----5-3-0-0----------5-5-|

F|--------------------------------------------------------------|
C|--------------------------------------------------------------|
G|0-000-0-0-3-2-0-2----------------------------------/7---35----|
C|------------------2-222-2-2-0-2-0-3-5----5---5-5-5------------|

F|----------------------------------------------------------------|
C|----------------------------------------------------------------|
G|0-000-0-0-3-2-0-2--------------------------------2----2-0-3-----|
C|------------------2-222-2-2-0-2-0-3-5----5-3-0-0------------5-5-|

F|----------------------------------------------------------------|
C|----------------------------------------------------------------|
G|0-000-0-0-3-2-0-2-----------------------------------7---3-5-----|
C|------------------2-222-2-2-0-2-0-3-5----5---5-5-5--------------|

F|---------------------------------------------------------------|
C|--------------------------------------------------------5-5-3-3|
G|0-0-0-0-3-2-0-2------------------------------------------------|
C|----------------2-2-2-2-0-2-0-3-5-5-5-5-3-5-3-5-0-0-0-0--------|

F|---------------------------------------------------------------|
C|---------------------------------------------------------------|
G|0-0-0-0-3-2-0-2-----------------------------------------7-7-5-5|
C|----------------2-2-2-2-0-2-0-3-5-5-5-5-3-5-3-5-0-0-0-0--------|

F|---------------------------------------------------------------|
C|--------------------------------------------------------5-5-3-3|
G|0-0-0-0-3-2-0-2------------------------------------------------|
C|----------------2-2-2-2-0-2-0-3-5-5-5-5-3-5-3-5-0-0-0-0--------|

F|---------------------------------------------------------------|
C|---------------------------------------------------(0)---------|
G|0-0-0-0-3-2-0-2------------------------------------(5)---------|
C|----------------2-2-2-2-0-2-0-3-5-5-5-5-3-5-3-5----------------|
    Heres the part I messed up on the last tabs, the solo
F|--------------------------------------------------|
C|------9----10----12----14----12----10----10-------|
G|10-10---10----10----10----10----10----10------10--|
C|--------------------------------------------------|

F|--------------------------------------------------|
C|--------------------------------------------------|
G|------10----12----14----141514-12----10----9-7----|
C|10-10----10----10----10-----------------10--------|

F|--------------------------------------------------|
C|------9----10----12----14----12----10----9109-----|
G|10-10---10----10----10----10----10----10------10--|
C|--------------------------------------------------|

F|------------------------------------------------|
C|------------------------------------------------|
G|------10---12----14----141514-12----10----------|
C|10-10---10----10----10-----------------10-975---|
I also messed up on the post-solo
F---------------------------------------------------|
C---------------------------------------------------|
G---------------------------------------------------|
C|10-10-10-10----9-9-9-9----7-7-7-7-----7777-9-9-9-9|

F|--------------------------------------------------|
C|--------------------------------------------------|
G|--------------------------------------------------|
C|10-10-10-10----9-9-9-9---97-7-7-7-----7777-9-9-9-9|

F|--------------------------------------------------------------|
C|--------------------------------------------------------------|
G|------------10-------------10---------------------------------|
C|10-10-10-10----10--9-9-9-9----9---7-7-7-7-7-7-7-7-7-7-7-7-79-9|

F|--------------------------------------------------------------|
C|-------------------------------------------------7------------|
G|------------10-------------10------------------------9---757--|
C|10-10-10-10----10--9-9-9-9----9--7-7-7-7-7-7-7-7---5---5------|

F|---------------------------------------------------------------|
C|---------------------------------------------------------------|
G|0-0-0-0-3-2-0-2------------------------------------------------|
C|----------------2-2-2-2-2-2-2-2-5-5-5-5-3-5-3-5-0-0-0-0-0-0-0-0|

F|---------------------------------------------------------------|
C|---------------------------------------------------------------|
G|0-0-0-0-3-2-0-2------------------------------------------------|
C|----------------2-2-2-2-2-2-2-2-5-5-5-5-3-5-3-5-0-0-0-0-0-0-0-0|
  If you didn't review my other tabs, to play the X, lightly place your finger on the
string and pluck normally, but its not a harmonic
F|---------------------------------------------------------------|
C|---------------------------------------------------------------|
G|0-0-0---3-2-0-2------------------------------------------------|
C|----------------2-2-2---X-2---3/5-5-5---3-5-3-5-0-0-0---X-0-0-0|

F|---------------------------------------------------------------|
C|---------------------------------------------------------------|
G|0-0-0---3-2-0-2------------------------------------------------|
C|----------------2-2-2---X-2---3/5-5-5---3-5-3-5-0-0-0---X-0-0-0|

F|---------------------------------------------------------------|
C|---------------------------------------------------------------|
G|0-0-0-0-3-2-0-2------------------------------------------------|
C|----------------2-2-2-2-0-2-0-3-5-5-5-5-3-5-3-5-0-0-0-0-X-0-0-0|

F|---------------------------------------------------------------|
C|-----------------------------------------------(0)-------------|
G|0-0-0-0-3-2-0-2--------------------------------(5)-------------|
C|----------------2-2-2-2-0-2-0-3-5-5-5-5-3-5-3-5----------------|

F|-------------------------------------|-----------------------------------|
C|-------------------------------------|-----------------------------------|
G|0-----------------3--------2---------|0-----------------3--------/10----8|
C|---------2----------------------5----|---------2-------------------------|

F|-------------------------------------|-------------------------------|
C|-------------------------------------|-------------------------------|
G|0-----------------3--------2---------|0-----------------3------------|
C|---------2----------------------5----|---------2---------------------| Hold until end
                                                       G|-3------------|
Tap to rate this tab
 
# A B C D E F G H I J K L M N O P Q R S T U V W X Y Z