Song name
# A B C D E F G H I J K L M N O P Q R S T U V W X Y Z

Mudvayne - A New Game tab

----------------------------------------------------------------------------
                            Mudvayne - A New Game
----------------------------------------------------------------------------

Tabbed by: Metalrock4ever 

Tuning: CGCFAD 

Solo during Intro and whenever the riff is played (play when riff is repeated):
D|-------------| 
A|-------------| 
F|-------------| 
C|-4~-4~-4~-4~-| 
G|-------------| 
C|-------------| 


Solo during Bridge:
D|----------------------------------------------------------------9~-|
A|-9/10~-10-12-13-12-10----------------------------------------------|
F|----------------------12-10-9--------------------------------12----|
C|------------------------------12-10-8-----------------11~-11-------|
G|--------------------------------------12-10-8-7--------------------|
C|------------------------------------------------12-11--------------|

D|-10-------9-------8-7-6-3-1-0---------------|
A|----10------10----------------3-1-----------|
F|-------12------12-----------------3-2-------|
C|--------------------------------------3-2-~-|
G|--------------------------------------------|
C|--------------------------------------------|

D|----------------------------------------9h-------|
A|-----5~-6h5h4h5-6h5h4h6-7h6h5h8-9h8h7h8---8h7h8~-|
F|---2---------------------------------------------|
C|-2-----------------------------------------------|
G|-------------------------------------------------|
C|-------------------------------------------------|

D|-5-----4-----------------------------------------------|
A|---4-3---3-2-3-----2-----------------------------------|
F|---------------2-0---1---4-----3-----1-------------3b~-|
C|-----------------------4---4-2---3-1---1---------1-----|
G|-----------------------------------------4-1-0-1-------|
C|-------------------------------------------------------|

Solo during the last chorus: 
D|-----------------------| 
A|-10~-13-8~-13----------| 
F|--------------9~-12-7~-| 
C|-----------------------| 
G|-----------------------| 
C|-----------------------|

************************************ 
| / slide up 
| h hammer-on 
| ~ vibrato 
| + harmonic 
| x Mute note 
************************************ 

If you have any comments/corrections, please say in either the comments box or 
leave me a message. Good luck and enjoy!
Tap to rate this tab
# A B C D E F G H I J K L M N O P Q R S T U V W X Y Z