Song name
# A B C D E F G H I J K L M N O P Q R S T U V W X Y Z

Mudvayne - A New Game tab

----------------------------------------------------------------------------
                            Mudvayne - A New Game
----------------------------------------------------------------------------

Tabbed by: Metalrock4ever 

Tuning: CGCFAD 

This tab does not include the solos. This is for rhythm guitar.

Intro: 
D|-------------------------------| 
A|-------------------------------| 
F|-------------------------------| 
C|-------------------------------| x3 
G|-------------------------------| 
C|-5-4-4-7-4-4-5-4-4-7-4-4-4-4-4-| 

D|---------------------------| 
A|---------------------------| 
F|---------------------------| 
C|---------------------------| 
G|---------------------------| 
C|-10-8-7-10-8-7-10-8-7-3333-| 

D|-------------------------------| 
A|-------------------------------| 
F|-------------------------------| 
C|-------------------------------| x3 
G|-------------------------------| 
C|-5-4-4-7-4-4-5-4-4-7-4-4-4-4-4-| 

D|---------------------------| 
A|---------------------------| 
F|---------------------------| 
C|---------------------------| 
G|---------------------------| 
C|-10-8-7-10-8-7-10-8-7-3333-| 


Verse: 
D|----------------------------------------------|
A|----------------------------------------------|
F|----------------------------------------------|
C|----------------------------------------------|   x3
G|----------------------------------------------|
C|-5x-4x-4x-7x-4x-4x-5x-4x-4x-7x-4x-4x-4x-4x-5x-| 

D|----------------------------------------|
A|----------------------------------------|
F|----------------------------------------|
C|----------------------------------------|
G|----------------------------------------|
C|-10x-8x-7x-10x-8x-7x-10x-8x-7x-3x3x3x3x-| 

D|----------------------------------------------|
A|----------------------------------------------|
F|----------------------------------------------|
C|----------------------------------------------|   x3
G|----------------------------------------------|
C|-5x-4x-4x-7x-4x-4x-5x-4x-4x-7x-4x-4x-4x-4x-5x-| 

D|----------------------------------------|
A|----------------------------------------|
F|----------------------------------------|
C|----------------------------------------|
G|----------------------------------------|
C|-10x-8x-7x-10x-8x-7x-10x-8x-7x-3x3x3x3x-| 

D|-------------------------| 
A|-------------------------| 
F|-------------------------| 
C|-4444-4444-4444-444------| x2 
G|-4444-4444-4444-444------| 
C|-4444-4444-4444-444-3333-| 


Pre-Chorus: 
D|-----------------------------------------------------------------|
A|-----------------------------------------------------------------| 
F|-----------------------------------------------------------------| 
C|-----------------------------------------------------------------| x2 
G|---------------------------------------------------------3h4-3h4-|
C|-1h2-1h2-1h2-1h2-4h5-4h5-7h8-7h8-1h2-1h2-1h2-1h2-4h5-4h5---------|


Pre-Verse: 
D|-------------------------------| 
A|-------------------------------| 
F|-------------------------------| 
C|-------------------------------| x3 
G|-------------------------------| 
C|-5-4-4-7-4-4-5-4-4-7-4-4-4-4-4-| 

D|---------------------------| 
A|---------------------------| 
F|---------------------------| 
C|---------------------------| 
G|---------------------------| 
C|-10-8-7-10-8-7-10-8-7-3333-| 

D|-------------------------------| 
A|-------------------------------| 
F|-------------------------------| 
C|-------------------------------| x3 
G|-------------------------------| 
C|-5-4-4-7-4-4-5-4-4-7-4-4-4-4-4-| 

D|---------------------------| 
A|---------------------------| 
F|---------------------------| 
C|---------------------------| 
G|---------------------------| 
C|-10-8-7-10-8-7-10-8-7-3333-| 


Verse 2: 
D|----------------------------------------------|
A|----------------------------------------------|
F|----------------------------------------------|
C|----------------------------------------------|  x3
G|----------------------------------------------|
C|-5x-4x-4x-7x-4x-4x-5x-4x-4x-7x-4x-4x-4x-4x-5x-| 

D|----------------------------------------|
A|----------------------------------------|
F|----------------------------------------|
C|----------------------------------------|
G|----------------------------------------|
C|-10x-8x-7x-10x-8x-7x-10x-8x-7x-3x3x3x3x-| 

D|----------------------------------------------|
A|----------------------------------------------|
F|----------------------------------------------|
C|----------------------------------------------|  x3
G|----------------------------------------------|
C|-5x-4x-4x-7x-4x-4x-5x-4x-4x-7x-4x-4x-4x-4x-5x-| 

D|----------------------------------------|
A|----------------------------------------|
F|----------------------------------------|
C|----------------------------------------|
G|----------------------------------------|
C|-10x-8x-7x-10x-8x-7x-10x-8x-7x-3x3x3x3x-| 

D|-------------------------| 
A|-------------------------| 
F|-------------------------| 
C|-4444-4444-4444-444------| x2
G|-4444-4444-4444-444------| 
C|-4444-4444-4444-444-3333-| 


Pre-Chorus: 
D|-----------------------------------------------------------------| 
A|-----------------------------------------------------------------| 
F|-----------------------------------------------------------------| 
C|-----------------------------------------------------------------| x2 
G|---------------------------------------------------------3h4-3h4-|
C|-1h2-1h2-1h2-1h2-4h5-4h5-7h8-7h8-1h2-1h2-1h2-1h2-4h5-4h5---------|


Chorus: 
(Listen to music for rhythm. Either play one note or chords) 
D|---------------------|
A|---------------------|
F|---------------------|
C|-7777-7777-6666-6666-| 
G|-0000-0000-0000-0000-| 
C|-0000-0000-0000-0000-| 


Bridge: 
D|-------------------------------| 
A|-------------------------------| 
F|-77-7-7-7-7-7-8~-66-6-6-6-6-8~-| 
C|-77-7-7-7-7-7-8~-66-6-6-6-6-8~-| 
G|-55-5-5-5-5-5-6~-44-4-4-4-4-6~-| 
C|-------------------------------| 


Chorus: 
(Listen to music for rhythm. Either play one note or chords) D|---------------------| 
A|---------------------| 
F|---------------------| 
C|-7777-7777-6666-6666-| x4 
G|-0000-0000-0000-0000-| 
C|-0000-0000-0000-0000-| 

Bridge 2: 
D|------------------| 
A|------------------| 
F|------------------| 
C|-0000-00-00-00-00-| 
G|-0000-00-00-00-00-| 
C|-0000-00-00-00-00-| 

Outro: 
D|---------------------------------| 
A|---------------------------------| 
F|---------------------------------| 
C|-12121212-11111111-10101010-5555-| 
G|-12121212-11111111-10101010-5555-| 
C|-12121212-11111111-10101010-5555-| 

************************************ 
| / slide up 
| h hammer-on 
| ~ vibrato 
| + harmonic 
| x Mute note 
************************************ 

If you have any comments/corrections, please say in either the comments box 
or leave me a message. Good luck and enjoy!
Tap to rate this tab
 
# A B C D E F G H I J K L M N O P Q R S T U V W X Y Z