Guitaretab - guitar tabs
Song name
# A B C D E F G H I J K L M N O P Q R S T U V W X Y Z

Mudvayne - Skrying tab

Artist: Mudvayne 
Song: Skrying (from the album The End Of All Things To Come)
Tuning: C,G,C,F,A,D (low to high)

Verse:
|--------------------------------------------------------|
|--------------------------------------------------------|
|-12-10-12--12--13-12-10--10--15-15-15-17-17-17-13-13-13-|
|--x--x--x---x---x--x--x---x---x-x--x--x--x--x--x--x--x-|
|-10--8-10--10--11-10--8---8--13-13-13-15-15-15-11-11-11-|
|--------------------------------------------------------|

|-----------------------------------------------------------------|
|-----------------------------------------------------------------|
|-12-10-12--12--13-12-10--10--15-15-15-17-17-17-13-13-13-10-10-10-|
|--x--x--x---x---x--x--x---x---x-x--x--x-x--x--x--x--x--x--x--x-|
|-10--8-10--10--11-10--8---8--13-13-13-15-15-15-11-11-11-8--8--8-|
|-----------------------------------------------------------------|

Chorus:
|------------------------------------------------------|
|------------------------------------------------------|
|-999-999--999-999-999--999-999-999--999-999-999--/9-9-|
|-777-777--777-777-777--777-777-777--777-777-777\1/7-7-|
|-777-777--777-777-777--777-777-777--777-777-777\1/7-7-|
|-777-777--777-777-777--777-777-777--777-777-777\1/7-7-|

Interlude:
|--------------------------------------------------------------|
|--------------------------------------------------------------|
|--------------------------------------------------------------|
|------------------------------------------------------------3-|
|-5-3-5-3-5-6-5-3~-0-1------------5-5-3-5-6-5-3~-0-1-----------|
|----------------------0-1-1-0-1---------------------0-1-1-0---|
[ Tab from: http://www.guitaretab.com/m/mudvayne/34227.html ]
|--------------------------------|
|--------------------------------|
|------------------------9-8-8-8-|     
|---7---7---7------7---7---------|    ----w/delay
|-6---6---6---6--6---6-----------|
|--------------------------------|

|-----------------------------------------------------------------|
|-----------------------------------------------------------------|
|-----------------------------------------------------------------|
|-8-8-8-8-8-8-8-8-8-8-8-8-8-8-8-8-7-7-7-7-7-7-7-7-7-7-7-7-7-7-7-7-|
|-6-6-6-6-6-6-6-6-6-6-6-6-6-6-6-6-5-5-5-5-5-5-5-5-5-5-5-5-5-5-5-5-|
|-----------------------------------------------------------------|

|----------------------------------------|
|----------------------------------------|
|----------------------------------------|
|----------------------------------------|
|-12-10-12-10-12-13-12-10--7-8-0-1-1-0-1-|
|-12-10-12-10-12-13-12-10--7-8-0-1-1-0-1-|
                               . . . . .

|--------------------------------------|
|--------------------------------------|
|--------------------------------------|
|--------------------------------------|
|-12-12-10-12-13-12-10--7-8-0-1-1-0-15-|
|-12-12-10-12-13-12-10--7-8-0-1-1-0-15-|
                            . . . . ..
Bridge:
|----------------------------------------------|
|----------------------------------------------|
|-3--------3-------------3--------3------------|
|----------------------------------------------|
|---1-0-1----1-0-1--0-0----1-0-1----1-0-1--0-3-|
|---1-0-1----1-0-1--0-0----1-0-1----1-0-1--0-3-|
                    . .                    .
Fill:
|-----|
|-----|
|-----|
|-----|
|-6-6-|
|-6-6-|

Outro:
|-------------------|
|-------------------|
|-13-12-10-10-10-10-|
|--x--x--x-x--x--x-|
|-11-10--8-8--8--8-|
|-------------------|

Questions? Comments? Complaints?
E-mail me at: Redguitar@aol.com
-=-----X-Red-----=-
Related for Skrying tab