Song name
# A B C D E F G H I J K L M N O P Q R S T U V W X Y Z

Mudvayne - Fucking Determined tab

Determined
Intro: tremolo picking 
D|----------------------|----------------------|-----------|
A|----------------------|----------------------|-----------|
F|----------------------|----------------------|-----------|
C|----------------------|-2222333355558888-----|-----------|
G|----------------------|-2222333355558888-(4X)|-----------|
C|-2222333355558888-(4x)|-2222333355558888-----|-/15\-/15\-|
                   OHHHHHH
Chorus:
D|-----------------------------------|
A|-----------------------------------|
F|-----------------------------------| 
C|-0-3-0-3-0-3-0-3\6-0--0-3\6-0------| (4x)
G|-0-3-0-3-0-3-0-3\6-0--0-3\6-0------|
C|-0-3-0-3-0-3-0-3\6-0--0-3\6-0-/15\-|
  SO F*CKING DETERMINED!

Verse:                                       |--------------|              
D|------------------------------------------------|         |
A|-----------------5-5-5-5----------------5-5-5-5-|         |
F|-----------------4-4-4-4----------------4-4-4-4-| (2X)    |
C|-2222-0-2-0-2200-3-3-3-3-2222-0020-2000-3-3-3-3-|  extend last time
G|-2222-0-2-0-2200-2-2-2-2-2222-0020-2000-2-2-2-2-|         |
C|-2222-0-2-0-2200---------2222-0020-2000---------|         |
   .... . . . ....         .... .... ....    |--------------|              

Play Chorus

Play Verse

Play Chorus

Break:
D|-------------------------------|
A|-------------------------------|
F|-------------------------------|
C|-------------------------------| 
G|-------------------------------|
C|-2222-002222-002222-0088887707-| 
   .... ...... ...... ..........

D|-------------------------------|
A|-------------------------------|
F|-------------------------------|
C|-------------------------------| 
G|-------------------------------|
C|-2222-002222-002222-0088887707-| 
   .... ...... ..     ..........


D|-----------------------------------|
A|-----------------------------------|
F|-----------------------------------|
C|-2222-002222-002222-00-7h8-7h8-0-7-| (2x)
G|-2222-002222-002222-00-7h8-7h8-0-7-|
C|-2222-002222-002222-00-7h8-7h8-0-7-|

D|----------------------|----------------------|-----------|
A|----------------------|----------------------|-----------|
F|----------------------|----------------------|-----------|
C|----------------------|-2222333355558888-----|-----------|
G|----------------------|-2222333355558888-(4X)|-----------|
C|-2222333355558888-(4x)|-2222333355558888-----|-/15\-/15\-|
                   SO WRONG!            AAAAHHHHHHH!!

ONE! TWO! THREE!

Play Chorus 4x

Ending: (2 guitars) 
Lead guitar:
D|---------------------------------------------|
A|---------------------------------------------|
F|---------------------------------------------|
C|-0-3-0-3-0-3-0-3-6-0---------0-3\6-0-6-0-----| (4x)
G|-0-3-0-3-0-3-0-3-6-0let-ring-0-3\6-0-6-0-----|
C|-0-3-0-3-0-3-0-3-6-0---------0-3\6-0-6-0-/15\|

2nd guitar:
D|-----------------------------|
A|-----------------------------|
F|-888888888888877778888888888-|
C|-xxxxxxxxxxxxxxxxxxxxxxxxxxx-|
G|-666666666666655556666666666-|
C|-----------------------------|

              END!

(.)= Palm Mute
(/)= slide up
(\)= slide down
(h)= hammer on
Tap to rate this tab
# A B C D E F G H I J K L M N O P Q R S T U V W X Y Z