Song name
# A B C D E F G H I J K L M N O P Q R S T U V W X Y Z

Mudvayne - Forget To Remember tab

D|----------------------------------------------------------------||
A|----------------------------------------------------------------||
F|----------------------------------------------------------------||
C|-0-0-0-0--0--0-0-0-0--3p2p0--8-8-8-8--8--8-3-3-3-3--3--3--------||
G|-0-0-0-0--0--0-0-0-0--3p2p0--8-8-8-8--8--8-3-3-3-3--3--3--------||
C|-0-0-0-0--0--0-0-0-0--3p2p0--8-8-8-8--8--8-3-3-3-3--3--3--------||




D|----------------------------------------------------------------||
A|----------------------------------------------------------------||
F|----------------------------------------------------------------||
C|-0-0-0-0--0--0-0-0-0--3p2p0--8-8-8-8--8--8--3-3-3-3-3-2-1-------||
G|-0-0-0-0--0--0-0-0-0--3p2p0--8-8-8-8--8--8--3-3-3-3-3-2-1-------||
C|-0-0-0-0--0--0-0-0-0--3p2p0--8-8-8-8--8--8--3-3-3-3-3-2-1-------||



       [O P T I O N A L   B A C K G R O U N D   G U I T A R]
D|----------------------------------------------------------------||
A|----------------------------------------------------------------||
F|-14--------------12-12---14-------------------------------------||
C|-xx--(25 Times)--xx-xx---xx--(25 Times)-------------------------||
G|-12--------------10-10---12-------------------------------------||
C|----------------------------------------------------------------||



     [P L A Y E D   A L O N G   W I T H   B A C K G R O U N D]
D|----------------------------------------------------------------||
A|----------------------------------------------------------------||
F|----------------------------------------------------------------||
C|-0-0-0-0--0--0-0-0-0--3p2p0--8-8-8-8--8--8-3-3-3-3--3--3--------||
G|-0-0-0-0--0--0-0-0-0--3p2p0--8-8-8-8--8--8-3-3-3-3--3--3--------||
C|-0-0-0-0--0--0-0-0-0--3p2p0--8-8-8-8--8--8-3-3-3-3--3--3--------||

D|----------------------------------------------------------------||
A|----------------------------------------------------------------||
F|----------------------------------------------------------------||
C|-0-0-0-0--0--0-0-0-0--3p2p0--8-8-8-8--8--8-3-3-3-3-3-6----------||
G|-0-0-0-0--0--0-0-0-0--3p2p0--8-8-8-8--8--8-3-3-3-3-3-6----------||
C|-0-0-0-0--0--0-0-0-0--3p2p0--8-8-8-8--8--8-3-3-3-3-3-6----------||




D|----------------------------------------------------------------||
A|---------3-------3-------3----------------1-------1-------------||
F|----------------------------------------------------------------||
C|-3-3-3-3---3-3-3---3-3-3---3-3-3--0-0-0-0---0-0-0---2-3-2---2-3-||
G|----------------------------------------------------------0-----||
C|----------------------------------------------------------------||

D|----------------------------------------------------------------||
A|---------3-------3-------3----------------1-------1-------------||
F|----------------------------------------------------------------||
C|-3-3-3-3---3-3-3---3-3-3---3-3-3--0-0-0-0---0-0-0---2-3-2---2-3-||
G|----------------------------------------------------------0-----||
C|----------------------------------------------------------------||

 What have I done?...    (Repeat This 6 Times)       ...WHATS THIS?!
D|----------------------------------------------------------------||
A|---------3-------3-------3----------------1-------1-------------||
F|----------------------------------------------------------------||
C|-3-3-3-3---3-3-3---3-3-3---3-3-3--0-0-0-0---0-0-0---2-3-2---2-3-||
G|----------------------------------------------------------0-----||
C|----------------------------------------------------------------||



  I feel it on the inside... [Chorus]
D|----------------------------------------------------------------||
A|----------------------------------------------------------------||
F|----------------------------------------------------------------||
C|-0-0-0-0--0--0-0-0-0--3p2p0--8-8-8-8--8--8-3-3-3-3--3--3--------||
G|-0-0-0-0--0--0-0-0-0--3p2p0--8-8-8-8--8--8-3-3-3-3--3--3--------||
C|-0-0-0-0--0--0-0-0-0--3p2p0--8-8-8-8--8--8-3-3-3-3--3--3--------||

D|----------------------------------------------------------------||
A|----------------------------------------------------------------||
F|----------------------------------------------------------------||
C|-0-0-0-0--0--0-0-0-0--3p2p0--8-8-8-8--8--8--3-3-3-3-3-2-1-------||
G|-0-0-0-0--0--0-0-0-0--3p2p0--8-8-8-8--8--8--3-3-3-3-3-2-1-------||
C|-0-0-0-0--0--0-0-0-0--3p2p0--8-8-8-8--8--8--3-3-3-3-3-2-1-------||



   Still feel you on the inside...
D|----------------------------------------------------------------||
A|----------------------------------------------------------------||
F|----------------------------------------------------------------||
C|-0-0-0-0--0--0-0-0-0--3p2p0--8-8-8-8--8--8-3-3-3-3--3--3--------||
G|-0-0-0-0--0--0-0-0-0--3p2p0--8-8-8-8--8--8-3-3-3-3--3--3--------||
C|-0-0-0-0--0--0-0-0-0--3p2p0--8-8-8-8--8--8-3-3-3-3--3--3--------||

D|----------------------------------------------------------------||
A|----------------------------------------------------------------||
F|----------------------------------------------------------------||
C|-0-0-0-0--0--0-0-0-0--3p2p0--8-8-8-8--8--8--3-3-3-3-3-2-1-------||
G|-0-0-0-0--0--0-0-0-0--3p2p0--8-8-8-8--8--8--3-3-3-3-3-2-1-------||
C|-0-0-0-0--0--0-0-0-0--3p2p0--8-8-8-8--8--8--3-3-3-3-3-2-1-------||




   Oh Can you save me? 
D|----------------------------------------------------------------||
A|----------------------------------------------------------------||
F|-12/14--(15 Times)---17--(8 Times)---16--(8 Times)--------------||
C|-10/12---------------15--------------14-------------------------||
G|----------------------------------------------------------------||
C|----------------------------------------------------------------||
   
  From myself?                   From these memories?
D|----------------------------------------------------------------||
A|----------------------------------------------------------------||
F|-12/14--(15 Times)---17--(8 Times)---12--(8 Times)--------------||
C|-10/12---------------15--------------10-------------------------||
G|----------------------------------------------------------------||
C|----------------------------------------------------------------||


  Oh Can you save me? 
D|----------------------------------------------------------------||
A|----------------------------------------------------------------||
F|-12/14--(15 Times)---17--(8 Times)---16--(8 Times)--------------||
C|-10/12---------------15--------------14-------------------------||
G|----------------------------------------------------------------||
C|----------------------------------------------------------------||
   
  From myself?                   From these memories!!!!
D|----------------------------------------------------------------||
A|----------------------------------------------------------------||
F|-12/14--(15 Times)---17--(8 Times)---12--(8 Times)--------------||
C|-10/12---------------15--------------10-------------------------||
G|----------------------------------------------------------------||
C|----------------------------------------------------------------||

                       

                       ...Surrender to the shadows...
D|----------------------------------------------------------------||
A|----------------------------------------------------------------||
F|----------------------------------------------------------------||
C|------------------------1p0-0--0-1-0--1p0-0---------------------||
G|------------------------1p0-0--0-1-0--1p0-0--(4 Times)----------||
C|-1p0-0---0-1-0--1p0-0---1p0-0--0-1-0--1p0-0---------------------||



I feel it on the inside... [Chorus]
D|----------------------------------------------------------------||
A|----------------------------------------------------------------||
F|----------------------------------------------------------------||
C|-0-0-0-0--0--0-0-0-0--3p2p0--8-8-8-8--8--8-3-3-3-3--3--3--------||
G|-0-0-0-0--0--0-0-0-0--3p2p0--8-8-8-8--8--8-3-3-3-3--3--3--------||
C|-0-0-0-0--0--0-0-0-0--3p2p0--8-8-8-8--8--8-3-3-3-3--3--3--------||

D|----------------------------------------------------------------||
A|----------------------------------------------------------------||
F|----------------------------------------------------------------||
C|-0-0-0-0--0--0-0-0-0--3p2p0--8-8-8-8--8--8--3-3-3-3-3-2-1-------||
G|-0-0-0-0--0--0-0-0-0--3p2p0--8-8-8-8--8--8--3-3-3-3-3-2-1-------||
C|-0-0-0-0--0--0-0-0-0--3p2p0--8-8-8-8--8--8--3-3-3-3-3-2-1-------||



   Still feel you on the inside...
D|----------------------------------------------------------------||
A|----------------------------------------------------------------||
F|----------------------------------------------------------------||
C|-0-0-0-0--0--0-0-0-0--3p2p0--8-8-8-8--8--8-3-3-3-3--3--3--------||
G|-0-0-0-0--0--0-0-0-0--3p2p0--8-8-8-8--8--8-3-3-3-3--3--3--------||
C|-0-0-0-0--0--0-0-0-0--3p2p0--8-8-8-8--8--8-3-3-3-3--3--3--------||

D|----------------------------------------------------------------||
A|----------------------------------------------------------------||
F|----------------------------------------------------------------||
C|-0-0-0-0--0--0-0-0-0--3p2p0--8-8-8-8--8--8--3-3-3-3-3-2-1-------||
G|-0-0-0-0--0--0-0-0-0--3p2p0--8-8-8-8--8--8--3-3-3-3-3-2-1-------||
C|-0-0-0-0--0--0-0-0-0--3p2p0--8-8-8-8--8--8--3-3-3-3-3-2-1-------||



           ...Surrender to the shadows...
D|----------------------------------------------------------------||
A|----------------------------------------------------------------||
F|----------------------------------------------------------------||
C|------------------------1p0-0--0-1-0--1p0-0-1-2-3---------------||
G|------------------------1p0-0--0-1-0--1p0-0-1-2-3-(4 Times)-----||
C|-1p0-0---0-1-0--1p0-0---1p0-0--0-1-0--1p0-0-1-2-3---------------||





[That was a pain in the ass to actually write. I hope you guys enjoy this.
Tell me what you think because THIS IS MY FIRST TAB!!!

-Kood
Tap to rate this tab
# A B C D E F G H I J K L M N O P Q R S T U V W X Y Z