Song name
# A B C D E F G H I J K L M N O P Q R S T U V W X Y Z

Mudvayne - Pushing Through tab

Artist: Mudvayne
Album: Lost and Found
Song: Pushing Through
Provider: Maggot King

Drop to C tuning
(low to high) C-G-D-F-A-D


. = palm mute

/ = slide up

\ = slide down


    NOW TO BEGIN!!!


 Intro

D |---------------------------------|----------------------------------|
A |---------------------------------|----------------------------------|
F |------------------------------55-|-------------------------------55-|
C |------------------------------xx-|-------------------------------xx-|
G |------------------------------33-|-520232-5202-32520232-5202-320233-|
C |-52032-5202-32520232-5202-3202---|-520232-5202-32520232-5202-3202---|
                             ....                               ....


D |--------------------------------------------------|
A |--------------------------------------------------|
F |---------------------55----55--------55----55-----|
C |---------------------xx----xx--------xx----xx-----|
G |-520232-5202-3202----33----33--------33----33-----|
C |-520232-5202-32023202--3202--02323202--3202--0230-|
                    ....  ....   .......  ....


 Verse

D |------------------------------|------------------------------|
A |------------------------------|------------------------------|
F |------------------------------|------------------------------|
C |------------------------------|------------------------------|
G |------------------------------|------------------------------|
C |-22222222----66666666-6666554-|-22222222----66666666-6666555-|


D |------------------------------|------------------------------|----------|
A |------------------------------|------------------------------|-55555555-|
F |------------------------------|------------------------------|-xxxxxxxx-|
C |------------------------------|------------------------------|-22222222-|
G |------------------------------|------------------------------|----------|
C |-22222222----66666666-6666554-|-22222222----66666666-6666550-|----------|

 (Chorus) *Note* It is slightly altered, so I will write it down.


D |----------------------------------|----------------------------------|
A |-------------------------------55-|---------------------55----55-----|
F |-------------------------------xx-|---------------------xx----xx-----|
C |-------------------------------22-|---------------------22----22-----|
G |-520232-5202-32520232-5202--------|-520232-5202-3202-------------232-|
C |-520232-5202-32520232-5202-3202---|-520232-5202-32023202--3202--0232-|
                              ....                     ....   ....   ...

D |----------------------------------|----------------------------------|
A |-------------------------------55-|---------------------55----55-----|
F |-------------------------------xx-|---------------------xx----xx-----|
C |-------------------------------22-|---------------------22----22-----|
G |-520232-5202-32520232-5202--------|-520232-5202-3202-----------------|
C |-520232-5202-32520232-5202-3202---|-520232-5202-32023202--3202--0230-|
                              ....                     ....  ....
                                     ^
                                     |
                                     |
 (Play Verse 1x)                     |------------------------|
                                                              |
                                                              |
   (Play The "Slightly Altered Chorus") Except You Change The Fourth Measure To This:

D |--------------------------------------------------|
A |---------------------55----55--------55----55---5-|
F |---------------------xx----xx--------xx----xx---x-|
C |---------------------22----22--------22----22---2-|
G |-520232-5202-3202---------------------------------|
C |-520232-5202-32023202--3202--02323202--3202--023--|
                    ....  ....   .......  ....  ...

 Bridge


D |----------------------------------|---------------------------------|
A |----------------------------------|---------------------------------|
F |----------------------------------|---------------------------------|
C |----------------------------------|---------------------------------|
G |-----------------------------4477-|---------------------------------|
C |-45454-45454-454-45454-454545-----|-45454-45454-454-45454-454545000-|
                                                                   ...


D |----------------------------------|-----------------------------------|
A |----------------------------------|-----------------------------------|
F |----------------------------------|-----------------------------------|
C |----------------------------------|-----------------------------------|
G |-----------------------------4477-|-----------------------------3\2\1-|
C |-45454-45454-454-45454-454545-----|45454-45454-454-45454-45454503\2\1-|
                                                                  .


D |----------------------------------|------------------------------------|
A |----------------------------------|------------------------------------|
F |----------------------------------|------------------------------------|
C |----------------------------------|-------------55-----555\---222------|
G |-----------------444---777---5555-|-444777444777--77-------------------|
C |-45454-45454-454----555---888-----|-----------------888----555---88\33-|


D |-----------------------------------|-----------------------------------|
A |-----------------------------------|-----------------------------------|
F |-----------------------------------|-----------------------------------|
C |-------------55-----555\---2223355-|-------------55-----555\--222------|
G |-444777444777--77------------------|-444777444777--77------------------|
C |-----------------888----555--------|-----------------888---555---88\33-|


D |-----------------------------------|
A |-----------------------------------|
F |-----------------------------------|
C |-------------55-----555\---2223355-|
G |-444777444777--77------------------|
C |-----------------888----555--------|


D |-----------------|------------------|---------------------------------|
A |-----------------|------------------|---------------------------------|
F |-----------------|-------------4444-|-----------------------------444-|
C |-----------------|-------------3333-|-----------------------------333-|
G |-23232-23232-232-|-23232-2323232222-|-23232-23232-232-23232-232323222-|
C |-23232-23232-232-|-23232-232323-----|-23232-23232-232-23232-232323----|


D |----------------|------------------|----------------------------------|
A |----------------|------------------|----------------------------------|
F |----------------|-------------4444-|-----------------------------4444-|
C |----------------|-------------3333-|-----------------------------3333-|
G |-2322-23232-232-|-23232-2323232222-|-23232-23232-232-23232-2323232222-|
C |-2322-23232-232-|-23232-232323-----|-23232-23232-232-23232-232323-----|


D |----------|
A |-55555555-|
F |-xxxxxxxx-|
C |-22222222-|
G |----------|
C |----------|

 Outro (Play all of the "Altered Chorus" first. Then, once you are done the fourth
skip to the third. After you are done the third measure, play this:)


D |------------------------------------------------------------------|
A |---------------------55----55--------55----55--------55----55-----|
F |---------------------xx----xx--------xx----xx--------xx----xx-----|
C |---------------------22----22--------22----22--------22-----------|
G |-520232-5202-3202-------------------------------------------------|
C |-520232-5202-32023202--3202--02323202--3202--02323202--3202--0232-|
                    ....  ....   .......  ....   .......  ....

D |------------------|
A |-----55----55---5-|
F |-----xx----xx---x-|
C |-----22----22---2-|
G |------------------|
C |-3202--3202--023--|


           Well that is it! That took about a good 2 hours so hopefully you appreciated
If you find this tab incredible, please e-mail me at dustin_3_16@hotmail.com for morale.
you think it's complete junk, please e-mail and tell me what i can improve on please! =) 
all you headbangers out there:

 "KEEP METAL ALIVE!!! \,,\{-_- }/,,/
Tap to rate this tab
 
# A B C D E F G H I J K L M N O P Q R S T U V W X Y Z