Song name
# A B C D E F G H I J K L M N O P Q R S T U V W X Y Z

Mudvayne - Imn tab

Band: Mudvayne
Song: IMN
Tuning: CGCFAD

..= palm mute
/= slide

Intro
|----------------------------------------------|
|----------------------------------------------|
|----------------------------------------------|
|----------------------------------------------|
|----------------------------------------------|
|0000--0000--0000--0000-0000-0000-0000-00000000|
 ....  ....  ....  .... .... .... .... ........


Verse
|-------------------------------------------------------------------------|
|-------------------------------------------------------------------------|
|-------------------------------------------------------------------------|
|--------2-2-2-0-------2-2-2-2-2-0-------2-2-2-2-2-0-------2-2-2-2-3-3-3-3|
|0-0-0-0-x-x-x-0-0-0-0-x-x-x-x-x-0-0-0-0-x-x-x-x-x-0-0-0-0-x-x-x-x-x-x-x-x|
|0-0-0-0-1-1-1-0-0-0-0-1-1-1-1-1-0-0-0-0-1-1-1-1-1-0-0-0-0-1-1-1-1-2-2-2-2|
 . . . .         . . .             . . .             . . .
|--------------------------------------------------------------------------|
|--------------------------------------------------------------------------|
|--------------------------------------------------------------------------|
|--------2-2-2-2-2---3---2-2-2-2-2-0-3--3--3-2-2-2-2-2---3--2-2-2-2-3-3-3-3|
|0-0-0-0-x-x-x-x-x---x---x-x-x-x-x-0-x--x--x-x-x-x-x-x---x--x-x-x-x-x-x-x-x|
|0-0-0-0-1-1-1-1-1-0-3---1-1-1-1-1-0-3--3--3-1-1-1-1-1-0-3--1-1-1-1-3-3-3-3|
 . . . .           .                                   .
|-------------------------------------------------------------------------|
|-------------------------------------------------------------------------|
|-------------------------------------------------------------------------|
|--------2-2-2-0-------2-2-2-2-2-0-------2-2-2-2-2-0-------2-2-2-2-3-3-3-3|
|0-0-0-0-x-x-x-0-0-0-0-x-x-x-x-x-0-0-0-0-x-x-x-x-x-0-0-0-0-x-x-x-x-x-x-x-x|
|0-0-0-0-1-1-1-0-0-0-0-1-1-1-1-1-0-0-0-0-1-1-1-1-1-0-0-0-0-1-1-1-1-2-2-2-2|
 . . . .         . . .             . . .             . . .
|------------------------------------------------------------------|
|------------------------------------------------------------------|
|------------------------------------------------------------------|
|--------2-2-2-2-2---3---2-2-2-2-2-0-3--3--3-2-2-2-2-2---3--2-2-3-5|
|0-0-0-0-x-x-x-x-x---x---x-x-x-x-x-0-x--x--x-x-x-x-x-x---3--2-2-3-5|
|0-0-0-0-1-1-1-1-1-0-3---1-1-1-1-1-0-3--3--3-1-1-1-1-1-0-3--2-2-3-5|
 . . . .           .                                   .



Chorus
|-------------------------------|--------------------------------|
|------3------------------------|------3-------------------------|
|------2---------7-7---6-6---5-5|------2-------------------------|
|0-3-0-0-3-0-0-0-x-x---x-x---x-x|0-3-0-0-3-0-0-0--0-3-2-8-7-5-3-2|
|0-3-0---3-0-0-0-5-5-0-4-4-0-3-3|0-3-0---3-0-0-0--0-3-2-8-7-5-3-2|
|0-3-0---3-0-0-0-----0-----0----|0-3-0---3-0-0-0--0-3-2-8-7-5-3-2|

|-------------------------------|--------------------------------|
|------3------------------------|------3-------------------------|
|------2---------7-7---6-6---5-5|------2-------------------------|
|0-3-0-0-3-0-0-0-x-x---x-x---x-x|0-3-0-0-3-0-0-0--0-5-3-8-7-3-2-2|
|0-3-0---3-0-0-0-5-5-0-4-4-0-3-3|0-3-0---3-0-0-0--0-5-3-8-7-3-2-2|
|0-3-0---3-0-0-0-----0-----0----|0-3-0---3-0-0-0--0-5-3-8-7-3-2-2|



Verse
|-------------------------------------------------------------------------|
|-------------------------------------------------------------------------|
|-------------------------------------------------------------------------|
|--------2-2-2-0-------2-2-2-2-2-0-------2-2-2-2-2-0-------2-2-2-2-3-3-3-3|
|0-0-0-0-x-x-x-0-0-0-0-x-x-x-x-x-0-0-0-0-x-x-x-x-x-0-0-0-0-x-x-x-x-x-x-x-x|
|0-0-0-0-1-1-1-0-0-0-0-1-1-1-1-1-0-0-0-0-1-1-1-1-1-0-0-0-0-1-1-1-1-2-2-2-2|
 . . . .         . . .             . . .             . . .
|--------------------------------------------------------------------------|
|--------------------------------------------------------------------------|
|--------------------------------------------------------------------------|
|--------2-2-2-2-2---3---2-2-2-2-2-0-3--3--3-2-2-2-2-2---3--2-2-2-2-3-3-3-3|
|0-0-0-0-x-x-x-x-x---x---x-x-x-x-x-0-x--x--x-x-x-x-x-x---x--x-x-x-x-x-x-x-x|
|0-0-0-0-1-1-1-1-1-0-3---1-1-1-1-1-0-3--3--3-1-1-1-1-1-0-3--1-1-1-1-3-3-3-3|
 . . . .           .                                   .
|-------------------------------------------------------------------------|
|-------------------------------------------------------------------------|
|-------------------------------------------------------------------------|
|--------2-2-2-0-------2-2-2-2-2-0-------2-2-2-2-2-0-------2-2-2-2-3-3-3-3|
|0-0-0-0-x-x-x-0-0-0-0-x-x-x-x-x-0-0-0-0-x-x-x-x-x-0-0-0-0-x-x-x-x-x-x-x-x|
|0-0-0-0-1-1-1-0-0-0-0-1-1-1-1-1-0-0-0-0-1-1-1-1-1-0-0-0-0-1-1-1-1-2-2-2-2|
 . . . .         . . .             . . .             . . .
|------------------------------------------------------------------|
|------------------------------------------------------------------|
|------------------------------------------------------------------|
|--------2-2-2-2-2---3---2-2-2-2-2-0-3--3--3-2-2-2-2-2---3--2-2-3-5|
|0-0-0-0-x-x-x-x-x---x---x-x-x-x-x-0-x--x--x-x-x-x-x-x---3--2-2-3-5|
|0-0-0-0-1-1-1-1-1-0-3---1-1-1-1-1-0-3--3--3-1-1-1-1-1-0-3--2-2-3-5|
 . . . .           .                                   .


Chorus x2
|-------------------------------|--------------------------------|
|------3------------------------|------3-------------------------|
|------2---------7-7---6-6---5-5|------2-------------------------|
|0-3-0-0-3-0-0-0-x-x---x-x---x-x|0-3-0-0-3-0-0-0--0-3-2-8-7-5-3-2|
|0-3-0---3-0-0-0-5-5-0-4-4-0-3-3|0-3-0---3-0-0-0--0-3-2-8-7-5-3-2|
|0-3-0---3-0-0-0-----0-----0----|0-3-0---3-0-0-0--0-3-2-8-7-5-3-2|

|-------------------------------|--------------------------------|
|------3------------------------|------3-------------------------|
|------2---------7-7---6-6---5-5|------2-------------------------|
|0-3-0-0-3-0-0-0-x-x---x-x---x-x|0-3-0-0-3-0-0-0--0-5-3-8-7-3-2-2|
|0-3-0---3-0-0-0-5-5-0-4-4-0-3-3|0-3-0---3-0-0-0--0-5-3-8-7-3-2-2|
|0-3-0---3-0-0-0-----0-----0----|0-3-0---3-0-0-0--0-5-3-8-7-3-2-2|



Bridge
|---------------------------------------------------------------|
|---------------------------------------------------------------|
|---------------------------------------------------------------|  x4
|---------------------------------------------------------------|
|---------------------------------------------------------------|
|2-2-2-2-2-2-0-0-0-0-0-0-2-2-2-2-1-1-1-1-1-1-1-1-1-1-1-1-1-1-1-1|

|---------------------------------------------------------------|
|---------------------------------------------------------------|
|---------------------------------------------------------------|  x2
|---------------------------------------------------------------|
|--------------------------------------------0-0-1-1-1-1--------|
|2-2-2-2-2-2-0-0-0-0-0-0-2-2-2-2-1-1-1-1-1-1-------------3-3-3-3|

|----------------------------------------------------------------|
|----------------------------------------------------------------|
|----9-----9---------9-----9----------8-----8---------8-----8----| x2
|--8---8-----8-----8---8-----8------7---7-----7-----7---7-----7--|
|7-------7-----7-7-------7-----7--6-------6-----6-6-------6-----6|
|----------------------------------------------------------------|

|-------------------------------------------------|
|-------------------------------------------------|
|-------------------------------------------------|
|2---2-2----1---1-1----2---2-2---2---1---1-1------|
|2---2-2----1---1-1----2---2-2---2---1---1-1----21|
|2---2-2----1---1-1----2---2-2---2---1---1-1--1/16|

|---------------------------------------------------------------|
|---------------------------------------------------------------|
|---------------------------------------------------------------|  x2
|---------------------------------------------------------------|
|---------------------------------------------------------------|
|2-2-2-2-2-2-0-0-0-0-0-0-2-2-2-2-1-1-1-1-1-1-1-1-1-1-1-1-1-1-1-1|

|---------------------------------------------------------------|
|---------------------------------------------------------------|
|---------------------------------------------------------------|  x2
|---------------------------------------------------------------|
|--------------------------------------------0-0-1-1-1-1--------|
|2-2-2-2-2-2-0-0-0-0-0-0-2-2-2-2-1-1-1-1-1-1-------------3-3-3-3|



Chorus x2
|-------------------------------|--------------------------------|
|------3------------------------|------3-------------------------|
|------2---------7-7---6-6---5-5|------2-------------------------|
|0-3-0-0-3-0-0-0-x-x---x-x---x-x|0-3-0-0-3-0-0-0--0-3-2-8-7-5-3-2|
|0-3-0---3-0-0-0-5-5-0-4-4-0-3-3|0-3-0---3-0-0-0--0-3-2-8-7-5-3-2|
|0-3-0---3-0-0-0-----0-----0----|0-3-0---3-0-0-0--0-3-2-8-7-5-3-2|

|-------------------------------|--------------------------------|
|------3------------------------|------3-------------------------|
|------2---------7-7---6-6---5-5|------2-------------------------|
|0-3-0-0-3-0-0-0-x-x---x-x---x-x|0-3-0-0-3-0-0-0--0-5-3-8-7-3-2-2|
|0-3-0---3-0-0-0-5-5-0-4-4-0-3-3|0-3-0---3-0-0-0--0-5-3-8-7-3-2-2|
|0-3-0---3-0-0-0-----0-----0----|0-3-0---3-0-0-0--0-5-3-8-7-3-2-2|



Outro
|---------------------------------------------------------------|
|---------------------------------------------------------------|
|---------------------------------------------------------------|  x4
|---------------------------------------------------------------|
|---------------------------------------------------------------|
|2-2-2-2-2-2-0-0-0-0-0-0-2-2-2-2-1-1-1-1-1-1-1-1-1-1-1-1-1-1-1-1|


|----------------------------------------------|
|----------------------------------------------|
|--------(repeat until fade)-------------------|
|----------------------------------------------|
|----------------------------------------------|
|0000--0000--0000--0000-0000-0000-0000-00000000|
 ....  ....  ....  .... .... .... .... ........


Piano part at the end transcribed for guitar:
|--------------------|---------------------8|
|------8-7---7-10-8-7|------8-7---7-10-8-7--|
|----------7---------|----------7-----------|  x2
|----0---------------|----0-----------------|
|--0-----------------|--0-------------------|
|0--------------8----|0--------------8------|



There you have it.  Other tabs I've done for this band: Rain.Sun.Gone. and Fall Into Sleep (ver5).
Tap to rate this tab
 
# A B C D E F G H I J K L M N O P Q R S T U V W X Y Z