Song name
# A B C D E F G H I J K L M N O P Q R S T U V W X Y Z

Mudvayne - Rain Sun Gone tab

Help us improve GuitareTab! Take a short survey!
Band: Mudvayne
Song: Rain.Sun.Gone.
Tuning: CGCFAD

..= palm mute
/= slide up
\= slide down
h= hammer on
p= pull off
b= bend

Intro
|--------------------------|-----------------------------|
|--------------------------|-----------------------------|
|--------------------------|-----------------------------|
|7-0-2-0-7-7---7----7-7---7|--7-0-2-3-7-7---7----7-------|
|8-0-2-0-8-8---8----8-8---8|--8-0-2-3-8-8---8----8-------|
|--0-2-0-----0---00-----0--|0---0-2-3-----0---00---------|
   . . .     .   .      .   .   . . .     .   ..

|--------------------------|----------------------------------|
|--------------------------|----------------------------------|
|--------------------------|----------------------------------|
|7-0-2-0-7-7---7----7-7---7|--7-0-2-3-7-7---7----7-7777-101010|
|8-0-2-0-8-8---8----8-8---8|--8-0-2-3-8-8---8----8-8888--7-7-7|
|--0-2-0-----0---00-----0--|0---0-2-3-----0---00--------------|
   . . .     .   .      .   .   . . .     .   ..


Verse
"So far, left with nothing hanging by a memory.."
|------------------------------------------------------------|
|------------------------------------------------------------|
|------------------------------------------------------------|
|0-22-3-22-0-22-3-22-0-222--7-7-7-7-7-7-7-7-7-7-7-7-7-7-7-7--|
|0-22-3-22-0-22-3-22-0-222--6-6-6-6-6-6-6-6-6-6-6-6-6-6-6-6--|
|0-22-3-22-0-22-3-22-0-222--6-6-6-6-6-6-6-6-6-6-6-6-6-6-6-6--|
 . .. . .. . .. . .. . ...  . . . . . . . . . . . . . . . .

"No stars, to give me one wish, so lost in the dark.."
|------------------------------------------------------------|
|------------------------------------------------------------|
|------------------------------------------------------------|
|0-22-3-22-0-22-3-22-0-222--7-7-7-7-7-7-7-7-7-7-7-7-7-7-7-7--|
|0-22-3-22-0-22-3-22-0-222--6-6-6-6-6-6-6-6-6-6-6-6-6-6-6-6--|
|0-22-3-22-0-22-3-22-0-222--6-6-6-6-6-6-6-6-6-6-6-6-6-6-6-6--|
 . .. . .. . .. . .. . ...  . . . . . . . . . . . .

"Feels like i'm caving in from the outside.."
|------------------------------------------------------------|
|------------------------------------------------------------|
|------------------------------------------------------------|
|0-22-3-22-0-22-3-22-0-222--7-7-7-7-7-7-7-7-7-7-7-7-7-7-7-7--|
|0-22-3-22-0-22-3-22-0-222--6-6-6-6-6-6-6-6-6-6-6-6-6-6-6-6--|
|0-22-3-22-0-22-3-22-0-222--6-6-6-6-6-6-6-6-6-6-6-6-6-6-6-6--|
 . .. . .. . .. . .. . ...  . . . . . . . . . . . . . . . .

"All right all wrong, see you again, so long.."
|------------------------------------------------------------|
|------------------------------------------------------------|
|------------------------------------------------------------|
|0-22-3-22-0-22-3-22-0-222--7-7-7-7-7-7-7-7-7-7-7-7-7-7-7-7--|
|0-22-3-22-0-22-3-22-0-222--6-6-6-6-6-6-6-6-6-6-6-6-6-6-6-6--|
|0-22-3-22-0-22-3-22-0-222--6-6-6-6-6-6-6-6-6-6-6-6-6-6-6-6--|
 . .. . .. . .. . .. . ...  . . . . . . . . . . . .


Pre-Chorus
"Nothing matters anymore, at all, nothing matters anymore.."
|--------------------------|-----------------------------|
|--------------------------|-----------------------------|
|--------------------------|-----------------------------|
|7-0-2-0-7-7---7----7-7---7|--7-0-2-3-7-7---7----7-------|
|8-0-2-0-8-8---8----8-8---8|--8-0-2-3-8-8---8----8-------|
|--0-2-0-----0---00-----0--|0---0-2-3-----0---00---------|
   . . .     .   .      .   .   . . .     .   ..

|--------------------------|----------------------------------|
|--------------------------|----------------------------------|
|--------------------------|----------------------------------|
|7-0-2-0-7-7---7----7-7---7|--7-0-2-3-7-7---7----7-7777-101010|
|8-0-2-0-8-8---8----8-8---8|--8-0-2-3-8-8---8----8-8888--7-7-7|
|--0-2-0-----0---00-----0--|0---0-2-3-----0---00--------------|


Chorus
"Life's not meant to be disposable, lost, found, dead.."
|--------------------------------------------------------------|
|--------------------------------------------------------------|
|--------------------------------------------------------------|
|10-10-10-------10-10-10-------10-10------222-555-888-555-222-0|
|-7--7--7--------7--7--7--------7--7------222-555-888-555-222-0|
|---------8-8-8----------8-8-8-------8-8--222-555-888-555-222-0|

"Ready and willing, can't fight the feeling.."
|--------------------------------------------------------------|
|--------------------------------------------------------------|
|-------------------------------------77777777-----------------|
|777-777-555555555-0-10101010101010-0-55555555-----------------|
|333-666-666666666-0--7-7-7-7-7-7-7-0-66666666-----------------|
|--------------------------------------------------------------|

"Life's not meant to be expendable, rain, sun, gone.."
|--------------------------------------------------------------|
|--------------------------------------------------------------|
|--------------------------------------------------------------|
|10-10-10-------10-10-10-------10-10------222-555-888-555-222-0|
|-7--7--7--------7--7--7--------7--7------222-555-888-555-222-0|
|---------8-8-8----------8-8-8-------8-8--222-555-888-555-222-0|

"Left robbed, unwilling, can't fight the feeling.."
|--------------------------------------------------------------|
|--------------------------------------------------------------|
|-------------------------------------77777777-----------------|
|777-777-555555555-0-10101010101010-0-55555555-----------------|
|333-666-666666666-0--7-7-7-7-7-7-7-0-66666666-----------------|
|--------------------------------------------------------------|

Verse
"So low, overwhelming, clinging to a tragedy.."
|------------------------------------------------------------|
|------------------------------------------------------------|
|------------------------------------------------------------|
|0-22-3-22-0-22-3-22-0-222--7-7-7-7-7-7-7-7-7-7-7-7-7-7-7-7--|
|0-22-3-22-0-22-3-22-0-222--6-6-6-6-6-6-6-6-6-6-6-6-6-6-6-6--|
|0-22-3-22-0-22-3-22-0-222--6-6-6-6-6-6-6-6-6-6-6-6-6-6-6-6--|
 . .. . .. . .. . .. . ...  . . . . . . . . . . . . . . . .

"So clear, hear weeping voices tears fall in the dark.."
|------------------------------------------------------------|
|------------------------------------------------------------|
|------------------------------------------------------------|
|0-22-3-22-0-22-3-22-0-222--7-7-7-7-7-7-7-7-7-7-7-7-7-7-7-7--|
|0-22-3-22-0-22-3-22-0-222--6-6-6-6-6-6-6-6-6-6-6-6-6-6-6-6--|
|0-22-3-22-0-22-3-22-0-222--6-6-6-6-6-6-6-6-6-6-6-6-6-6-6-6--|
 . .. . .. . .. . .. . ...  . . . . . . . . . . . .

"Feels like i'm carving in from the outside.."
|------------------------------------------------------------|
|------------------------------------------------------------|
|------------------------------------------------------------|
|0-22-3-22-0-22-3-22-0-222--7-7-7-7-7-7-7-7-7-7-7-7-7-7-7-7--|
|0-22-3-22-0-22-3-22-0-222--6-6-6-6-6-6-6-6-6-6-6-6-6-6-6-6--|
|0-22-3-22-0-22-3-22-0-222--6-6-6-6-6-6-6-6-6-6-6-6-6-6-6-6--|
 . .. . .. . .. . .. . ...  . . . . . . . . . . . . . . . .

"So lost, so gone, so wrong.."
|------------------------------------------------------------|
|------------------------------------------------------------|
|------------------------------------------------------------|
|0-22-3-22-0-22-3-22-0-222--7-7-7-7-7-7-7-7-7--7777-101010---|
|0-22-3-22-0-22-3-22-0-222--6-6-6-6-6-6-6-6-6--8888--7-7-7---|
|0-22-3-22-0-22-3-22-0-222--6-6-6-6-6-6-6-6-6----------------|
 . .. . .. . .. . .. . ...  . . . . . . . . .


Chorus
"Life's not meant to be disposable, lost, found, dead.."
|--------------------------------------------------------------|
|--------------------------------------------------------------|
|--------------------------------------------------------------|
|10-10-10-------10-10-10-------10-10------222-555-888-555-222-0|
|-7--7--7--------7--7--7--------7--7------222-555-888-555-222-0|
|---------8-8-8----------8-8-8-------8-8--222-555-888-555-222-0|

"Ready and willing, can't fight the feeling.."
|--------------------------------------------------------------|
|--------------------------------------------------------------|
|-------------------------------------77777777-----------------|
|777-777-555555555-0-10101010101010-0-55555555-----------------|
|333-666-666666666-0--7-7-7-7-7-7-7-0-66666666-----------------|
|--------------------------------------------------------------|

"Life's not meant to be expendable, rain, sun, gone.."
|--------------------------------------------------------------|
|--------------------------------------------------------------|
|--------------------------------------------------------------|
|10-10-10-------10-10-10-------10-10------222-555-888-555-222-0|
|-7--7--7--------7--7--7--------7--7------222-555-888-555-222-0|
|---------8-8-8----------8-8-8-------8-8--222-555-888-555-222-0|

"Left robbed, unwilling, can't fight the feeling.."
|--------------------------------------------------------------|
|--------------------------------------------------------------|
|-------------------------------------77777777-----------------|
|777-777-555555555-0-10101010101010-0-55555555-----------------|
|333-666-666666666-0--7-7-7-7-7-7-7-0-66666666-----------------|
|--------------------------------------------------------------|


Bridge
"It's never ending..."
|-----------------------------------|
|-----------------------------------|
|-----------------------------------|
|0-22-3-22-0-22--3-22--888---888----|
|0-22-3-22-0-22--3-22--666---666----|
|0-22-3-22-0-22--3-22--666---666----|

"Never goes away, but you did..."
|--------------------------------------|
|--------------------------------------|
|--------------------------------------|
|0-22-3-22-0-22--3-22--888---8888-888--|
|0-22-3-22-0-22--3-22--666---6666-666--|
|0-22-3-22-0-22--3-22--666---6666-555--|

"It's never ending..."
|-----------------------------------|
|-----------------------------------|
|-----------------------------------|
|0-22-3-22-0-22--3-22--888---888----|
|0-22-3-22-0-22--3-22--666---666----|
|0-22-3-22-0-22--3-22--666---666----|

"Never goes away..."
|--------------------------------------|
|--------------------------------------|
|--------------------------------------|
|0-22-3-22-0-22--3-22--888---8888-888--|
|0-22-3-22-0-22--3-22--666---6666-666--|
|0-22-3-22-0-22--3-22--666---6666-555--|

"But you did..   "Why? Why?"
|10------------|-------------|
|-8-(let ring)-|10-----------|
|-9------------|---9---------|
|--------------|-----9-------|
|--------------|-------------|
|--------------|-------------|

"The body, just a vehicle to hold.."
|------------------------------------------------------------------|
|------------------------------------------------------------------|
|------------------------------------------------------------------|  x4
|------------------------------------------------------------------|
|777-101010-777/121212-1010-77-151515-141414-121212-101010-12121212|
|------------------------------------------------------------------|
(those are all 7's, 10's, 12's, 14's, and 15's; just so there's not confusion)

"Can I, give you my loss.."
|----------------------------------|
|----------------------------------|
|----------------------------------|  x8 (the last time, replace the two
|----------------------------------|       10's with two more 7's)
|7-7-7-7-7-7-7-7-7-7-7-7-7-7-10-10-|
|----------------------------------|

"SUFFER!!"
|---------------------------------------------|
|---------------------------------------------|
|---------------------------------------------|
|---------------------------------------------|
|----------------2-2-2-2-2-2-2-2h3-----2h3----|
|2-2-2-2-2-2-2-2-------------------4-4-----4~-|

"F**KING SUFFER!!                 "SUFFER LIKE ME!!"
|-------------------------------|------------------------------|
|-------------------------------|------------------------------|
|-------------------------------|------------------------------|
|-------------------------------|4-4-4-4--4-4-4-4-4-4-4-5-4-4-4|
|--------------7-6-6------------|4-4-4-4--4-4-4-4-4-4-4-5-4-4-4|
|2-2-2-2-2/7-9-------9-9-7-7-9-9|4-4-4-4--4-4-4-4-4-4-4-5-4-4-4|
*note: the slide here is a beat
 and you do not hit the string
 with the pick on the 7 after
 the slide

Chorus
"Life's not meant to be disposable, lost, found, dead.."
|--------------------------------------------------------------|
|--------------------------------------------------------------|
|--------------------------------------------------------------|
|10-10-10-------10-10-10-------10-10------222-555-888-555-222-0|
|-7--7--7--------7--7--7--------7--7------222-555-888-555-222-0|
|---------8-8-8----------8-8-8-------8-8--222-555-888-555-222-0|

"Ready and willing, can't fight the feeling.."
|--------------------------------------------------------------|
|--------------------------------------------------------------|
|-------------------------------------77777777-----------------|
|777-777-555555555-0-10101010101010-0-55555555-----------------|
|333-666-666666666-0--7-7-7-7-7-7-7-0-66666666-----------------|
|--------------------------------------------------------------|

"Life's not meant to be expendable, rain, sun, gone.."
|--------------------------------------------------------------|
|--------------------------------------------------------------|
|--------------------------------------------------------------|
|10-10-10-------10-10-10-------10-10------222-555-888-5-0-0--0-|
|-7--7--7--------7--7--7--------7--7------222-555-888-5-0-0--0-|
|---------8-8-8----------8-8-8-------8-8--222-555-888-5-0-0--0-|
                                                        . .  .

"Left robbed, unwilling, can't fight the feeling.."
|--------------------------------------------------------------|
|--------------------------------------------------------------|
|-------------------------------------77777777-----------------|
|777-777-555555555-0-10101010101010-0-55555555-----------------|
|333-666-666666666-0--7-7-7-7-7-7-7-0-66666666-----------------|
|--------------------------------------------------------------|


Outro
|--------------------------------------|
|--------------------------------------|
|--------------------------------------|
|0-22-3-22-0-22--3-22--888---8888-888--|
|0-22-3-22-0-22--3-22--666---6666-666--|
|0-22-3-22-0-22--3-22--666---6666-555--|

|-----------------------------------------------------------------|
|-----------------------------------------------------------------|
|-----------------------------------------------------------------|
|-----------------------------------------------------------------|
|----------------2-2-2-2-3-3-3-3-------------------2h3p2---2------|
|2-2-2-2-2-2-2-2-----------------4-4-4-4-4-4-4-4-4-------4---4-2-4|

|---------------------------------------------------------------|
|---------------------------------------------------------------|
|---------------------------------------------------------------|
|---------------------------------------------------------------|
|--------------7-6-6--------------------------------------------|
|2-2-2-2-2/7-9-------9-9-7-7-9-9--4-4-4-4-4-4-4-4-4-4-4-5-4-4-4-|

|-----------------------------------------------------------------|
|-----------------------------------------------------------------|
|-----------------------------------------------------------------|
|-----------------------------------------------------------------|
|----------------2-2-2-2-3-3-3-3-------------------2h3p2---2------|
|2-2-2-2-2-2-2-2-----------------4-4-4-4-4-4-4-4-4-------4---4-2-4|

|---------------------------------------------------------------|
|---------------------------------------------------------------|
|---------------------------------------------------------------|
|---------------------------------------------------------------|
|--------------7-6-6--------------------------------------------|
|2-2-2-2-2/7-9-------9-9-7-7-9-9--4-4-4-4-4-4-4-4-4-4-4-5-4-4-4-|

|-----------------------------------------------------------------|
|-----------------------------------------------------------------|
|-----------------------------------------------------------------|
|-----------------------------------------------------------------|
|----------------2-2-2-2-3-3-3-3-------------------2h3p2---2------|
|2-2-2-2-2-2-2-2-----------------4-4-4-4-4-4-4-4-4-------4---4-2-4|

|---------------------------------------------------------------|
|---------------------------------------------------------------|
|---------------------------------------------------------------|
|---------------------------------------------------------------|
|--------------7-6-6--------------------------------------------|
|2-2-2-2-2/7-9-------9-9-7-7-9-9--4-4-4-4-4-4-4-4-4-4-4-5-4-4-4-|


There it is. This tab is 100% correct. My other works include "Pot (ver 5)" by Tool, 
Into Sleep (ver 5)" by Mudvayne, and "Lost Keys (Blame Hofmann)" by Tool.
Related for Rain Sun Gone tab