Song name
# A B C D E F G H I J K L M N O P Q R S T U V W X Y Z

Muff Potter - Alles Nur Geklaut tab

-------------------------------------------------------------------------------
			     Alles nur geklaut by Muff Potter
-------------------------------------------------------------------------------
Tabbed by: Freddy.P
Email: --

Tuning: standard


LEGEND
~~~~~~~~~~~~~~~~~~
^   = strum down
v   = strum up
|:| = repeat
~~~~~~~~~~~~~~~~~~


CHORDS USED:
~~~~~~~~~~~~~~~~~~~~~~
   Dm D  F  G  A  C  B
   
E|-5-------------------|
H|-6-------------------|
G|-7--7-----------5--3-|
D|-7--7--3--5--7--5--3-|
A|-5--5--3--5--7--3--1-|
E|----5--1--3--5-------|

~~~~~~~~~~~~~~~~~~~~~~


#Intro/Verse: 

1st guitar (1 & 2) 
            
   ^ v        v ^ v 
E|-5-5---| |--5-5-5--| |
H|-6-6---| |--6-6-6--| |
G|-7-7---|:|--7-7-7--|:|
D|-7-7---| |--7-7-7--| |
A|-5-5---| |--5-5-5--| |
E|-------| |---------| |

2nd guitar (1) -> starts together with the singer

E| |-5-5-5---------|-5-5-5---------| |
H| |-------8-6-8-6-|-------8-6-8-7-| |
G|:|---------------|---------------|:| x4
D| |---------------|---------------| |
A| |---------------|---------------| |
E| |---------------|---------------| |

"Ein Nachtfalter im Neonlicht..."

E| |-5-5-5---------|-------8-6-5-6-| |
H| |-------8-6-8-6-|-6-6-6---------| |
G|:|---------------|---------------|:| x2
D| |---------------|---------------| |
A| |---------------|---------------| |
E| |---------------|---------------| |

"Gibt's doch gar nicht..."

E| |-5-5-5---------|-5-5-5---------| |
H| |-------8-6-8-6-|-------8-6-8-7-| |
G|:|---------------|---------------|:| x2
D| |---------------|---------------| |
A| |---------------|---------------| |
E| |---------------|---------------| |

"Und tausend allerletzte Fragen..."


2nd guitar (2) -> starts together with the singer

E| |---------------|---------------|---------------|---------------| |
H| |-6-6-6-6-6-----|-6-6-6-6-6---- |-6-6-6-6-6-----|-6-6-6-8-6-----| |
G|:|-----------7-7-|-----------7-7-|-----------7-7-|-----------7-7-|:| x2
D| |---------------|---------------|---------------|---------------| |
A| |---------------|---------------|---------------|---------------| |
E| |---------------|---------------|---------------|---------------| |

"Für jede Leber die passende Laus..."

E| |-5-5-5---------|-5-5-5---------| |
H| |-------8-6-8-6-|-------8-6-8-7-| |
G|:|---------------|---------------|:| x4
D| |---------------|---------------| |
A| |---------------|---------------| |
E| |---------------|---------------| |

"Was wird wie eine wilde Sause..."



#Refrain

1st guitar

E|---------------|---------------|---------------|---------------|
H|---------------|---------------|---------------|---------------|
G|-7--7-7--7-7-7-|---------------|---------------|---------------| x2
D|-7--7-7--7-7-7-|-3--3-3--3-3-3-|-5--5-5--5-5-5-|-7--7-7--7-7-7-|
A|-5--5-5--5-5-5-|-3--3-3--3-3-3-|-5--5-5--5-5-5-|-7--7-7--7-7-7-|
E|-5--5-5--5-5-5-|-1--1-1--1-1-1-|-3--3-3--3-3-3-|-5--5-5--5-5-5-|

".......................................Und das ist alles nur ge.."

2nd guitar: (only during the second repetition of guitar 1)

   ^ v v v v
E|------------|
H|------------|
G|-5-7-7-7-7--| x4
D|------------|
A|------------|
E|------------|

1st guitar (or both?)

E|-------------|-------------|--------------|-------------|
H|-------------|-------------|--------------|-------------|
G|-3--3-3--3-3-|-5--5-5--5-5-|-7--7-7---7-7-|-7--7-7--7-7-| x2
D|-3--3-3--3-3-|-5--5-5--5-5-|-7--7-7---7-7-|-7--7-7--7-7-|
A|-1--1-1--1-1-|-3--3-3--3-3-|-5--5-5---5-5-|-5--5-5--5-5-|
E|-------------|-------------|--------------|-------------|

"Ich hab' das Uhrwerk nichtr gebaut..."

E|-------------|-------------|--------------|-------------|
H|-------------|-------------|--------------|-------------|
G|-3--3-3--3-3-|-5--5-5--5-5-|--------------|-7--7-7--7-7-| x1
D|-3--3-3--3-3-|-5--5-5--5-5-|-3--3-3---3-3-|-7--7-7--7-7-|
A|-1--1-1--1-1-|-3--3-3--3-3-|-3--3-3---3-3-|-5--5-5--5-5-|
E|-------------|-------------|-1--1-1---1-1-|-------------| 

"Na klar kann ich Fremde Menschen leiden..."                                               

E|-------------|-------------|--------------|-------------|
H|-------------|-------------|--------------|-------------|
G|-3--3-3--3-3-|-5--5-5--5-5-|-7--7-7---7-7-|-7--7-7--7-7-| x1
D|-3--3-3--3-3-|-5--5-5--5-5-|-7--7-7---7-7-|-7--7-7--7-7-|
A|-1--1-1--1-1-|-3--3-3--3-3-|-5--5-5---5-5-|-5--5-5--5-5-|
E|-------------|-------------|--------------|-------------|

".............................und.."


#Bridge

1st guitar: like the verse

2nd guitar

E|---|
H|---|
G|-7-|
D|-7-| ..How often? Easy to figure out..
A|-5-|
E|-5-|

"Das sind die Dinge, die schnell verstauben..."

# Overview

Intro / Verse(1) / Refrain / Verse(2) / Refrain / Bridge / Refrain / Play G until the end.
Tap to rate this tab
# A B C D E F G H I J K L M N O P Q R S T U V W X Y Z