Song name
# A B C D E F G H I J K L M N O P Q R S T U V W X Y Z

Muff Potter - Die Guten tab

---------------------------------------------------------------------------
			     Die Guten  Muff Potter
-------------------------------------------------------------------------------
Tabbed by: HendrikW
Email: hendrik3112@yahoo.de

Tuning:Standard

Verse (0:00-0:59)

e|-----------------------------------------------------------------------------|
B|-----------------------------------------------------------------------------|
G|-----------------------------------------------------------------------------|
D|-------9-9-9-9-9-9-9-9---------9-9-9-9-9-9-9-9-------------------------------|
A|-------7-7-7-7-7-7-7-7----x2---x-x-x-x-x-x-x-x x2---------------------------|
E|-------0-0-0-0-0-0-0-0---------7-7-7-7-7-7-7-7-------------------------------|

e|-----------------------------------------------------------------------------|
B|-----------------------------------------------------------------------------|
G|------------------------------4-4-4-4-4-4-4-4--------------------------------|
D|-------9-9-9-9-9-9-9-9--------x-x-x-x-x-x-x-x--------------------------------|
A|-------7-7-7-7-7-7-7-7x2-----2-2-2-2-2-2-2-2----x2--------------------------|
E|-------5-5-5-5-5-5-5-5--------0-0-0-0-0-0-0-0--------------------------------|

Bridge - Piano Part (Guitar 2) Verse still playing
e|-----------------------------------------------------------------------------|
B|--------12----------------------12-------------------------------------------|
G|------------11--13----13-11-9------11--13- 11----4--2--1---------------------|
D|-----------------------------------------------------------------------------|
A|-----------------------------------------------------------------------------|
E|-----------------------------------------------------------------------------|

Chorus (listen to the song for the strumming)
e|-----------------------------------------------------------------------------|
B|-----9-9--x------------------------9-9-x-------------------------------------|
G|-----9-9--x--9-9-9--9-9-x----------9-9-x--9-9-9---9--------------------------|
D|-----7-7--x--9-9-9--7-7-x-2-2-2----7-7-x--9-9-9---7---(let ring)----x2-------|
A|-------------7-7-7--5-5-x-0-0-0-----------7-7-7---5--------------------------|
E|-----------------------------------------------------------------------------|
Tap to rate this tab
 
# A B C D E F G H I J K L M N O P Q R S T U V W X Y Z