Song name
# A B C D E F G H I J K L M N O P Q R S T U V W X Y Z

Muffs - Prettier Than Me tab

The Muffs - Prettier Than Me

Intro: 	x2
e|--3-----------------------0--0--2--2--2--|      e|--3-----------------------0--0--2--2--2--|
B|--3-----------------------1--1--3--3--3--|      B|--3--0--1--3--1--0--------1--1--3--3--3--|
G|--0-----------------------0--0--2--2--2--|  OR  G|--0-----------------2-----0--0--2--2--2--|
D|--0--------0--------------2--2--0--0--0--|      D|--0-----------------------2--2--0--0--0--|
A|-----2--3-----3--2--0--3--3--3-----------|      A|-----------------------3--3--3-----------|
E|-----------------------------------------|      E|-----------------------------------------|

   G                     Cadd9
My dreams are prettier than me
              G                   Cadd9
If I close my eyes, this is what I see
              G      G*               Em7
You are never there, And you'll never see
              Cadd9
Nevermind the truth
                 D             G
Nevermind you'll always be the same

           Cadd9                G
Lying all the time, do you ever sleep
                Cadd9                G
Wake up feeling fine, you don't even care
G*          Em7             Cadd9
I can never be prettier for you
              D            Cadd9
I'm only ever prettier for me

Chorus 1:
Cadd9              G                  Cadd9
     Nevermind the truth you'll never see
                   G               Cadd9
     Nevermind you mean nothing to me
                 G       G*       Em7
     Nevermind I have no place to go
                      Cadd9 D    G
     Nevermind you'll never ever know

#Intro

My dreams are flying through my head
When I go to sleep, will I wake up dead
But I will forget, and I'll never be
Prettier for you
I'm only ever prettier for me

Chorus 2:
     Nevermind the truth you always say,
     Nevermind the dreams that went away
     Nevermind I have no place to go
     Nevermind you'll never ever know

Solo:
e|-3-------------0-0-0-0-0-3-------------0-0-0-0-0-3---------------------------------------------|
B|-3-------------1-1-1-1-1-3-------------1-1-1-1-1-3---------------------------------------------|
G|-0-------------0-0-0-0-0-0-------------0-0-0-0-0-0---------------------------------------------|
D|-0-----0-------2-2-2-2-2-0-----0-------2-2-2-2-2-0-0--0----------------------------------------|
A|-2-2-3---3-2-0-3-3-3-3-3-2-2-3---3-2-0-3-3-3-3-3-2------3-2-0-2--2--0--0-2--2--0---0-2---------|
E|-3-----------------------3-----------------------3-------------------------------3--------3-2-3|

OR

e|-3-------------0-0-0-0-0-3-------------0-0-0-0-0-3---------------------------------------------|
E|-3-0-1-3-1-0---1-1-1-1-1-3-0-1-3-1-0---1-1-1-1-1-3-3--3-1-0---0--0-------0--0--------0---------|
G|-0-----------2-0-0-0-0-0-0-----------2-0-0-0-0-0-0----------2-------2--2-------2-0-2----2-0---0|
D|-0-------------2-2-2-2-2-0-------------2-2-2-2-2-0------------------------------------------4--|
A|-2-------------3-3-3-3-3-2-------------3-3-3-3-3-2---------------------------------------------|
E|-3-----------------------3-----------------------3---------------------------------------------|


#Chorus 1
       D     G          \3x
You'll never know       /

#Intro x2

   *******************
Originaly she is playing intro and solo parts using solo strings, but both of versions 
good. So you can play these parts one or other way.


Chords:
   G  G* Cadd9 Em7 D  C
e|-3--3----3----0--2--0-------|
b|-3--3----3----3--3--1-------|
g|-0--0----0----0--2--0-------|
d|-0--0----2----2--0--2-------|
a|-2--x----3----2-----3-------|
E|-3--2---------0-------------|

# - repeat that part

For better understanding:
Versus Chords:
G Cadd9
G Cadd9
G G* Em7
C D

Chorus Chords:
Cadd9 G
Cadd9 G
Cadd9 G G* Em7
Cadd9 D G
Tap to rate this tab
# A B C D E F G H I J K L M N O P Q R S T U V W X Y Z