Song name
# A B C D E F G H I J K L M N O P Q R S T U V W X Y Z

Muffs - Kids In America tab

This is my first tab so it isn't much.

~~= Hold the note
()= Optional/Guitar 2

e|-----------------------------|
b|------------5-7~~------------|
g|-----4-4-6-7-----------------|
d|-----------------------------|
a|-----------------------------|
E|-----------------------------|

e|-----------------------------|
b|---------5-------------------|
g|-----6-6---76-4~~-(2224)-----|
d|-----------------------------|
a|-----------------------------|
E|-----------------------------|

e|-----------------------------|
b|------------5-7~~------------|
g|-----4-4-6-7-----------------|
d|-----------------------------|
a|-----------------------------|
E|-----------------------------|

e|-----------------------------|
b|---------5-------------------|
g|-----6-6---76-4~-76-4~-(2224)|
d|-----------------------------|
a|-----------------------------|
E|-----------------------------|
Tap to rate this tab
# A B C D E F G H I J K L M N O P Q R S T U V W X Y Z