Song name
# A B C D E F G H I J K L M N O P Q R S T U V W X Y Z

Muffs - Oh Nina tab

Oh Nina - The Muffs

E|-------------------------------------------|
B|-------------------------------------------|
G|-------------------------------------------|
D|--5-5-5-5-5-5-5-5-5-5-5-5-5-5-5-5-5-5-5-5--|
A|--5-5-5-5-5-5-5-5-5-5-5-5-5-5-5-5-5-5-5-5--|
E|--3-3-3-3-3-3-3-3-3-3-3-3-3-3-3-3-3-3-3-3--|
Pm                  .                   .

E|-------------------------------------------|
B|-------------------------------------------|
G|-------------------------------------------|
D|--5-5-5-5-5-5-5-5-5-5-5-5-5-5-5-5-5-5-5-5--|
A|--5-5-5-5-5-5-5-5-5-5-5-5-5-5-5-5-5-5-5-5--|
E|--3-3-3-3-3-3-3-3-3-3-3-3-3-3-3-3-3-3-3-3--|
Pm                  .                   .

E|---------------------------------------------------------------------------|
B|---------------------------------------------------------------------------|
G|---------------------------------5-5-5-5-5-5-5-5-5-5--7-7-7-7-7-7-7-7-7-7--|
D|--5-5-5-5-5-5-5-5-5-5-5-5-5-5-5--5-5-5-5-5-5-5-5-5-5--7-7-7-7-7-7-7-7-7-7--|
A|--5-5-5-5-5-5-5-3-3-5-5-5-5-5-5--3-3-3-3-3-3-3-3-3-3--5-5-5-5-5-5-5-5-5-5--|
E|--3-3-3-3-3-3-3-3-3-3-3-3-3-3-3--------------------------------------------|
Pm    .     .   .     .   .     .    .     .   .     .    .     .   .      .

E|-------------------------------------------|
B|-------------------------------------------|
G|-------------------------------------------|
D|--5-5-5-5-5-5-5-5-5-5-5-5-5-5-5-5-5-5-5-5--|
A|--5-5-5-5-5-5-5-5-5-5-5-5-5-5-5-5-5-5-5-5--|
E|--3-3-3-3-3-3-3-3-3-3-3-3-3-3-3-3-3-3-3-3--|
Pm                  .                   .

E|-------------------------------------------|
B|-------------------------------------------|
G|-------------------------------------------|
D|--5-5-5-5-5-5-5-5-5-5-5-5-5-5-5-5-5-5-5-5--|
A|--5-5-5-5-5-5-5-5-5-5-5-5-5-5-5-5-5-5-5-5--|
E|--3-3-3-3-3-3-3-3-3-3-3-3-3-3-3-3-3-3-3-3--|
Pm                  .                   .

E|---------------------------------------------------------------------------|
B|---------------------------------------------------------------------------|
G|---------------------------------5-5-5-5-5-5-5-5-5-5--7-7-7-7-7-7-7-7-7-7--|
D|--5-5-5-5-5-5-5-5-5-5-5-5-5-5-5--5-5-5-5-5-5-5-5-5-5--7-7-7-7-7-7-7-7-7-7--|
A|--5-5-5-5-5-5-5-3-3-5-5-5-5-5-5--3-3-3-3-3-3-3-3-3-3--5-5-5-5-5-5-5-5-5-5--|
E|--3-3-3-3-3-3-3-3-3-3-3-3-3-3-3--------------------------------------------|
Pm    .     .   .     .   .     .    .     .   .     .    .     .   .      .

E|------------------------------------------------------|
B|------------------------------------------------------|
G|-------------5-5-5--7-7-7---------------5-5-5--7-7-7--|
D|--5-5-5-5-5--5-5-5--7-7-7----5-5-5-5-5--5-5-5--7-7-7--|
A|--5-5-5-5-5--3-3-3--5-5-5----5-5-5-5-5--3-3-3--5-5-5--|
E|--3-3-3-3-3------------------3-3-3-3-3----------------|
Pm    .     .                    .     .
E|-------------------------------------------------|
B|-------------------------------------------------|
G|-------------5-5-5--7-7-7--5-5-5-5-5--7-7-7-7-7--|
D|--5-5-5-5-5--5-5-5--7-7-7--5-5-5-5-5--7-7-7-7-7--|
A|--5-5-5-5-5--3-3-3--5-5-5--3-3-3-3-3--5-5-5-5-5--|
E|--3-3-3-3-3--------------------------------------|
Pm    .     .                  .     .    .     .

E|-------------------------------------------|
B|-------------------------------------------|
G|-------------------------------------------|
D|--5-5-5-5-5-5-5-5-5-5-5-5-5-5-5-5-5-5-5-5--|
A|--5-5-5-5-5-5-5-5-5-5-5-5-5-5-5-5-5-5-5-5--|
E|--3-3-3-3-3-3-3-3-3-3-3-3-3-3-3-3-3-3-3-3--|
Pm                  .                   .
E|-------------------------------------------|
B|-------------------------------------------|
G|-------------------------------------------|
D|--5-5-5-5-5-5-5-5-5-5-5-5-5-5-5-5-5-5-5-5--|
A|--5-5-5-5-5-5-5-5-5-5-5-5-5-5-5-5-5-5-5-5--|
E|--3-3-3-3-3-3-3-3-3-3-3-3-3-3-3-3-3-3-3-3--|
Pm                  .                   .

E|---------------------------------------------------------------------------|
B|---------------------------------------------------------------------------|
G|---------------------------------5-5-5-5-5-5-5-5-5-5--7-7-7-7-7-7-7-7-7-7--|
D|--5-5-5-5-5-5-5-5-5-5-5-5-5-5-5--5-5-5-5-5-5-5-5-5-5--7-7-7-7-7-7-7-7-7-7--|
A|--5-5-5-5-5-5-5-3-3-5-5-5-5-5-5--3-3-3-3-3-3-3-3-3-3--5-5-5-5-5-5-5-5-5-5--|
E|--3-3-3-3-3-3-3-3-3-3-3-3-3-3-3--------------------------------------------|
Pm    .     .   .     .   .     .    .     .   .     .    .     .   .      .

E|------------------------------------------------------|
B|------------------------------------------------------|
G|-------------5-5-5--7-7-7---------------5-5-5--7-7-7--|
D|--5-5-5-5-5--5-5-5--7-7-7----5-5-5-5-5--5-5-5--7-7-7--|
A|--5-5-5-5-5--3-3-3--5-5-5----5-5-5-5-5--3-3-3--5-5-5--|
E|--3-3-3-3-3------------------3-3-3-3-3----------------|
Pm    .     .                    .     .

E|-------------------------------------------------|
B|-------------------------------------------------|
G|-------------5-5-5--7-7-7--5-5-5-5-5--7-7-7-7-7--|
D|--5-5-5-5-5--5-5-5--7-7-7--5-5-5-5-5--7-7-7-7-7--|
A|--5-5-5-5-5--3-3-3--5-5-5--3-3-3-3-3--5-5-5-5-5--|
E|--3-3-3-3-3--------------------------------------|
Pm    .     .                  .     .    .     .

E|-------------------------------------------|
B|-------------------------------------------|
G|-------------------------------------------|
D|--5-5-5-5-5-5-5-5-5-5-5-5-5-5-5-5-5-5-5-5--|
A|--5-5-5-5-5-5-5-5-5-5-5-5-5-5-5-5-5-5-5-5--|
E|--3-3-3-3-3-3-3-3-3-3-3-3-3-3-3-3-3-3-3-3--|
Pm                  .                   .

E|---------------------------------------------|
B|---------------------------------------------|
G|--5-5-5-5-5--7-7-7-7-7-----------------------|
D|--5-5-5-5-5--7-7-7-7-7--5-5-5-5-5-5-5-5-5-5--|
A|--3-3-3-3-3--5-5-5-5-5--5-5-5-5-5-5-5-5-5-5--|
E|------------------------3-3-3-3-3-3-3-3-3-3--|
Pm    .     .    .     .    .     .   .     .

E|---------------------------------------------|
B|---------------------------------------------|
G|--5-5-5-5-5--7-7-7-7-7-----------------------|
D|--5-5-5-5-5--7-7-7-7-7--5-5-5-5-5-5-5-5-5-5--|
A|--3-3-3-3-3--5-5-5-5-5--5-5-5-5-5-5-5-5-5-5--|
E|------------------------3-3-3-3-3-3-3-3-3-3--|
Pm    .     .    .     .    .     .   .     .

E|---------------------------------------------|
B|---------------------------------------------|
G|--5-5-5-5-5--7-7-7-7-7-----------------------|
D|--5-5-5-5-5--7-7-7-7-7--5-5-5-5-5-5-5-5-5-5--|
A|--3-3-3-3-3--5-5-5-5-5--5-5-5-5-5-5-5-5-5-5--|
E|------------------------3-3-3-3-3-3-3-3-3-3--|
Pm    .     .    .     .    .     .   .     .


E|--------------------------------------------|
B|--------------------------------------------|
G|--5-5-5-5-5-5-5-5-5-5--7-7-7-7-7-7-7-7-7-7--|
D|--5-5-5-5-5-5-5-5-5-5--7-7-7-7-7-7-7-7-7-7--|
A|--3-3-3-3-3-3-3-3-3-3--5-5-5-5-5-5-5-5-5-5--|
E|--------------------------------------------|
Pm    .     .   .     .    .     .    .    .

E|------------------------------------------------------|
B|------------------------------------------------------|
G|-------------5-5-5--7-7-7---------------5-5-5--7-7-7--|
D|--5-5-5-5-5--5-5-5--7-7-7----5-5-5-5-5--5-5-5--7-7-7--|
A|--5-5-5-5-5--3-3-3--5-5-5----5-5-5-5-5--3-3-3--5-5-5--|
E|--3-3-3-3-3------------------3-3-3-3-3----------------|
Pm    .     .                    .     .

E|-------------------------------------------------|
B|-------------------------------------------------|
G|-------------5-5-5--7-7-7--5-5-5-5-5--7-7-7-7-7--|
D|--5-5-5-5-5--5-5-5--7-7-7--5-5-5-5-5--7-7-7-7-7--|
A|--5-5-5-5-5--3-3-3--5-5-5--3-3-3-3-3--5-5-5-5-5--|
E|--3-3-3-3-3--------------------------------------|
Pm    .     .                  .     .    .     .

E|-------------------------------------------|
B|-------------------------------------------|
G|-------------------------------------------|
D|--5-5-5-5-5-5-5-5-5-5-5-5-5-5-5-5-5-5-5-5--|
A|--5-5-5-5-5-5-5-5-5-5-5-5-5-5-5-5-5-5-5-5--|
E|--3-3-3-3-3-3-3-3-3-3-3-3-3-3-3-3-3-3-3-3--|
Pm                  .                   .

E|-------------------------------------------|
B|-------------------------------------------|
G|-------------------------------------------|
D|--5-5-5-5-5-5-5-5-5-5-5-5-5-5-5-5-5-5-5-5--|
A|--5-5-5-5-5-5-5-5-5-5-5-5-5-5-5-5-5-5-5-5--|
E|--3-3-3-3-3-3-3-3-3-3-3-3-3-3-3-3-3-3-3-3--|
Pm                  .                   .

E|-------------------------------------------|
B|-------------------------------------------|
G|-------------------------------------------|
D|--5-5-5-5-5-5-5-5-5-5-5-5-5-5-5-5-5-5-5-5--|
A|--5-5-5-5-5-5-5-5-5-5-5-5-5-5-5-5-5-5-5-5--|
E|--3-3-3-3-3-3-3-3-3-3-3-3-3-3-3-3-3-3-3-3--|
Pm                  .                   .
Tap to rate this tab
# A B C D E F G H I J K L M N O P Q R S T U V W X Y Z