Song name
# A B C D E F G H I J K L M N O P Q R S T U V W X Y Z

Muffs - Crush Me tab

Crush Me - The Muffs

Intro/Verse
e|--------------------|
b|--------------------|
g|--5--------3-----5--|
d|--5--3--7--3--5--5--|
a|--3--3--7--1--5--3--|
E|-----1--5-----3-----|

Chorus
e|--------------------------|
b|--------------------------|
g|--3--6--------3--6-----5--|
d|--3--6--3--7--3--6--3--5--|
a|--1--4--3--7--1--4--3--3--|
E|--------1--5--------1-----|

e|-----------------|
b|-----------------|
g|-----7-----3--5--|
d|--7--7--5--3--5--|
a|--7--5--5--1--3--|
E|--5-----3--------|

Solo
e|--------5--------------------------------------------6--10--8--5-----8--6--5--------7-|
b|-----6-----8--5-----8--6--------6-----------------6---------------6-----------8--6----|
g|--5--------------6--------7--------8--5-----------------------------------------------|
d|-----------------------------7-----------5--7--8--------------------------------------|
a|--------------------------------------------------------------------------------------|
E|--------------------------------------------------------------------------------------|
Tap to rate this tab
# A B C D E F G H I J K L M N O P Q R S T U V W X Y Z