Song name
# A B C D E F G H I J K L M N O P Q R S T U V W X Y Z

Muffs - Im A Dick tab

Im A Dick - The Muffs

Intro
e|----------------------------------------------------------------------------------|
b|----------------------------------------------------------------------------------|
g|--------------------------7-7-----------------9-9---------------------------------|
d|--7-7-X---7-7-X---7-7-X---7-7-7-7-X---7-7-X---9-9-7-7-X---7-7-X---7-7-X---7-7-X---|
a|--7-7-X---7-7-X---7-7-X---5-5-7-7-X---7-7-X---7-7-7-7-X---7-7-X---7-7-X---7-7-X---|
E|--5-5-X-0-5-5-X-0-5-5-X-0-----5-5-X-0-5-5-X-0-----5-5-X-0-5-5-X-0-5-5-X-0-5-5-X-0-|

Verse
e|----------------|
b|----------------|
g|-----7-----9----|
d|--7--7--7--9--7-|
a|--7--5--7--7--7-|
E|--5-----5-----5-|

Chorus
e|-----------------------------------------|
b|-----------------------------------------|
g|--9-----7--9--7--9-----9-----7--9--7--9--|
d|--9--7--7--9--7--9--7--9--7--7--9--7--9--|
a|--7--7--5--7--9--7--7--7--7--5--7--5--7--|
E|-----5--------------5-----5--------------|
Tap to rate this tab
 
# A B C D E F G H I J K L M N O P Q R S T U V W X Y Z