Song name
# A B C D E F G H I J K L M N O P Q R S T U V W X Y Z

Muffs - Prettier Than Me tab

Prettier Than Me - The Muffs - Alert Today Alive Tomorrow

Chords:   G      Cadd9     Em7       D
e|--------3--------3--------0--------2--------|
b|--------3--------3--------3--------3--------|
g|--------0--------0--------0--------2--------|
d|--------0--------2--------2--------0--------|
a|--------2--------3--------2-----------------|
E|--------3-----------------0-----------------|

Intro
e|--3-----------------------0--0--2--2--2--|
b|--3-----------------------1--1--3--3--3--|
g|--0-----------------------0--0--2--2--2--|
d|--0--------0--------------2--2--0--0--0--|
a|-----2--3-----3--2--0--3--3--3-----------|
E|-----------------------------------------|

Verse
G, Cadd9
G, Cadd9
G, Cadd9
G, Em7
Cadd9, D

Chorus
Cadd9, G
Cadd9, G
Cadd9, G
Em7, Cadd9, G

Outro
G, Cadd9
G, Cadd9
G, Cadd9

Solo
e|--3--------------------0--0--0--0--0--3--------------------0--0--0--0--0--3-----------|
b|--3--------------------1--1--1--1--1--3--------------------1--1--1--1--1--3-----------|
g|--0--------------------0--0--0--0--0--0--------------------0--0--0--0--0--0-----------|
d|--0--------0-----------2--2--2--2--2--0--------0-----------2--2--2--2--2--0--0--0-----|
a|--2--2--3-----3--2--0--3--3--3--3--3--2--2--3-----3--2--0--3--3--3--3--3--2--------3--|
E|--3-----------------------------------3-----------------------------------3-----------|

--------------------------------------------------|
--------------------------------------------------|
--------------------------------------------------|
--------------------------------------------------|
--2--0--2--2--0--0--2--2--0-----0--2--0-----------|
-----------------------------3-----------3--2--3--|

Order:
Intro  x2
Verse  x2
Chorus x1
Intro  x2
Verse  x1
Chorus x1
Solo   x1
Chorus x1
Outro  x1
Intro  x4
Tap to rate this tab
# A B C D E F G H I J K L M N O P Q R S T U V W X Y Z