Song name
# A B C D E F G H I J K L M N O P Q R S T U V W X Y Z

Mugison - Murr Murr tab

This is a version I have seen Mugi and Petur Ben play on Iceland airwaves in 2007.

Tabbed by Ashe Walker, sixstringpsycho.

Open G tuning DGDGBD

Key
x-muted hit
h-hammer on
p-pull off

Main Riff

listen to track for rhythm.

D|----x-----------------|
B|----x-----------------|
G|--0-x------0------3p0-|
D|----x-0h3h5-----------|
G|0---x-----------------|
D|----x--------0x-0x----|

the "0x" mean play the note but mute it afterwords, do not let it ring out.  listen to 
rhythm in the song for it.

D|---------------------|
B|---------------------|
G|5--3--2---5--3--2--0-|
D|5--3--2---5--3--2--0-|
G|5--3--2---5--3--2--0-|
D|---------------------|


Petur Ben's lead

D|-----------------------------------------------------------------|
B|-----------------------3---------3--------3----------------------|
G|---------------------0-3---------3--------3--5--3--2--5--3--2--0-|
D|-------------0-0h3h5---3---------3--------3--5--3--2--5--3--2--0-|
G|-----0-0h3h5-------------------0---------0---5--3--2--5--3--2--0-|
D|0h3h5--------------------0h3h5-----0h3h5-------------------------|


http://www.youtube.com/watch?v=GKFhaTVpWcE

This is the version i have tabbed, I suggest you skip to 2:07 in the video as they are 
a slide version before this.

Ill now tab the slide part for those of you who woulds like like that part too.

Slide Intro - agian watch the video for rhythm.

*with slide

D|----x------------x---------------x------------x---------|
B|----x------------x--*7/12--------x------------x--*12/7--|
G|----x------0-----x--*7/12--------x------0-----x--*12/7--|
D|----x--0h3-------x--*7/12-----0--x--0h3-------x--*12/7--|
G|-0--x---------0--x---------------x---------0--x---------|
D|----x------------x---------------x------------x---------|

D|----x------------x---------------x------------x---------|
B|----x------------x--*7/12--------x------------x--*5/0---|
G|----x------0-----x--*7/12--------x------0-----x--*5/0---|
D|----x--0h3-------x--*7/12-----0--x--0h3-------x--*5/0---|
G|-0--x---------0--x---------------x---------0--x---------|
D|----x------------x---------------x------------x---------|

Have fun! pleae rate and comment, all questions welcome.
Tap to rate this tab
# A B C D E F G H I J K L M N O P Q R S T U V W X Y Z