Song name
# A B C D E F G H I J K L M N O P Q R S T U V W X Y Z

Mugshot - Eleven Eleven tab

Everyone has yet to tab this song so i've decided to take it upon myself to start.
The intro is something like this:

Tuning: Drop D (DADGBe)  -OR-  Standard (EADGBe)


You can play this intro 2 ways:

In Drop D...

   This is me, overreacting.....
e|---------------------------------|
B|---------------------------------|
G|-1---1---1---1---1---1---1---1---|
D|---------------------------------|
A|---4---4---4---4---4---4---4---4-|
E|---------------------------------|

   This is enough, to...
e|---------------------------------|
B|---------------------------------|
G|---------------------------------|
D|---------------------------------|
A|-4---4---4---4---4---4---4---4---|
E|---4---4---4---4---4---4---4-----|

-OR-

in standard...

   This is me, overreacting.....
e|---------------------------------|
B|---------------------------------|
G|---------------------------------|
D|-6---6---6---6---6---6---6---6---|
A|---4---4---4---4---4---4---4---4-|
E|---------------------------------|

   This is enough, to...
e|---------------------------------|
B|---------------------------------|
G|---------------------------------|
D|---------------------------------|
A|-4---4---4---4---4---4---4---4---|
E|---2---2---2---2---2---2---2---2-|


Both methods are equally accurate, but one is played in drop D and one is played in standard.
Once i get the rest of the song tabbed, if the song is played in drop D, i'll take out the 
tuning intro, and visa versa.
So that's all for now, more to come
everyone PLEASE comment, good or bad.
and if you can figure out the part that comes
at 0:24 (across like a jerk...)  then please post it in comments
and i will gladly add it in.
and if anyone figures out the rest of the song
feel free to post it yourself.
it's a great song by a great band.
enjoy! :)

http://www.myspace.com/mugshot
Tap to rate this tab
# A B C D E F G H I J K L M N O P Q R S T U V W X Y Z