Song name
# A B C D E F G H I J K L M N O P Q R S T U V W X Y Z

Mugshot - Are We Done tab

Intro parts, if someone can figure out the rest I'd be glad to add it on, chaba13@hotmail.com
pm.
e|--------------------------------------------------------------------------|
B|------------7-------------------------------------------------------------|
G|-------7--------7-----7---------------------------------------------------|
D|-----4-------------4------------------------------------------------------|
A|---5------5---------------------------------------------------------------|
E|--------------------------------------------------------------------------|

pm.
e|---------------------------------------------------------------------------|
B|---------------------------------------------------------------------------|
G|------------7--------------------------------------------------------------|
D|--------5-------7---5------------------------------------------------------|
A|-----5-----------5---------------------------------------------------------|
E|--3-------3----------------------------------------------------------------|

pm.
e|--------------------------------------------------------------------------|
B|-------------8------------------------------------------------------------|
G|--------11-----11---11----------------------------------------------------|
D|------9----9------9-------------------------------------------------------|
A|---7----------------------------------------------------------------------|
E|--------------------------------------------------------------------------|
Tap to rate this tab
 
# A B C D E F G H I J K L M N O P Q R S T U V W X Y Z