Song name
# A B C D E F G H I J K L M N O P Q R S T U V W X Y Z

Mule - Mississippi Breaks tab

-------------------------------------------------------------------------------
                             Mississippi Breaks - Mule
-------------------------------------------------------------------------------
Tabbed by:C-Bone
E-mail:cwarner3000@gmail.com

http://www.youtube.com/watch?v=PkJ3yAg0jLs

Tuning:Standard EADGBe

CHORDS
Cadd9  x32033
G      320033
D      xx0232
Em     022000
F      133211
C      x32010
A      577xxx

Here are the main parts 

0:12 Cadd9      G            D
e|----3-3----3--3-3-------3--2-------2-2-----2-2------2-2----------|
B|----3-3----3--3-3-------3--3---3---3-3-3---3-3--3---3-3----------|
G|--0-0-0----0--0-0-------0--2-2-0h2-2-2-0h2-2-2--0h2-2-2----------|
D|--2-----0h2---0-0-0-0-0----0-0-0-------0--------0----------------|
A|--3---------------2-0h2------------------------------------------|
E|------------------3-3--------------------------------------------|
    PM--                     PM-

0:23 Em          F           C             D 
e|-----------------------------------------2-2-2-2---2-2-----------|
B|-----------------------1-1-1-x-x-1---1-1-3-3-3-3---3-3-----------|
G|--------0-0-0--2-2-0h2-2-2-0-x-x-0---0-0-2-2-2-0h2-2-2-----------|
D|----2-2-2-2-2--3-3-3---3-3-2-x-x-0h2-2-2-0---------0-0-----------|
A|----2-2-2-2-2--3-3-3-------3-----3---3-3-------------------------|
E|----0-0-0--------------------------------------------------------|
     PM--        PM--

     Em          F            D
e|----------------------------2---2---2-2-2---2----2-2---2----------|
B|---------------1-1-1-1---1--3-3-3---3-3-3---3----3-3---3----------|
G|--------0-0-0--2-2-2-0h2-2--2-2-0h2-2-2-0h2-0h2--2-0h2-0h2--------|
D|----2-2-2-2-2--3-3-3-3---3--0-0-0---0---0---0----0-0---0----------|
A|----2-2-2-2-2--3-3-3-3---3----------------------------------------|
E|----0-0-0---------------------------------------------------------|
      PM-


Bridge 1:20
    A             C             A             C
e|-----------------------------------------------------------------|
B|--------------------------x-x---------------1---1-1---1----------|
G|----------------5-5-5-5\4-x-x-----------x-x-0---0-0---0-0--------|
D|--------------------------x-x-----------x-x-0h2-2-0h2-2-0h2------|
A|--7-x-x-7\-x-x--3-3-3-3\2-x-x--7-x-x-7\-x-x-3-----3-----3--------|
E|--5-x-x-5\-x-x-----------------5-x-x-5\-x-x----------------------|

Repeatx4



Solo 1:54
    Cadd9     G       D   
e|-----------------------------------------------------------------|
B|--5/8-8-8-7-3-3-x-x-5/8-8-8-7-3-5b7r5-3--------------------------|
G|--0---0-0-0-0-0-x-x-0---0-0-0-2---------2b4r2-0h2----------------|
D|------------0-0-x-x-0---0-0-0-0----------------------------------|
A|------------2-2--------------------------------------------------|
E|------------3-3--------------------------------------------------|
    Cadd9       G                 D
e|----------------------------------0-0-0-0-------------------------|
B|--5/8-8-8-7-3-5b7-5-3-----------3-3/5-5-5-3-----------------------|
G|--0---0-0-0-----------2b4r2-0h2-2-2/4-4-4-2-2-0-2-----------------|
D|--------------------------------0---------0-------2-0-2-----------|
A|------------------------------------------------------------------|
E|------------------------------------------------------------------|


Outro 3:13
    D        C           G  D       C           G
e|------------------------------------------------------------------|
B|-----------1-1-1-1-1-0------------1-1-1-1-1-0---------------------|
G|--7-7\-x-x-0-0-0-0-0-0-0--7-7-x-x-0-0-0-0-0-0-0-------------------|
D|--7-7\-x-x-2-2---------0--7-7-x-x-2-2---------0-------------------|
A|--5-5\-x-x-3-3---------2--5-5-x-x-3-3---------2-------------------|
E|-----------------------3----------------------3-------------------|
    D        C          G  Em
e|------------------------------------------------------------------|
B|-----------1-1-1-1-1-0--------------------------------------------|
G|--7-7\-x-x-0-0-0-0-0-0-0------------------------------------------|
D|--7-7\-x-x-2-2---------0--2---------------------------------------|
A|--5-5\-x-x-3-3---------2--2---------------------------------------|
E|-----------------------3--0---------------------------------------|



************************************
| PM- Palm Mute
| /   slide up
| \   slide down
| h   hammer-on
| p   pull-off
| ~   vibrato
| +   harmonic
| x   Mute note
| b   Bend
| pb  Pre-bend
| br  Bend release
| pbr Pre-bend release
| brb Bend release bend

************************************
Tap to rate this tab
 
# A B C D E F G H I J K L M N O P Q R S T U V W X Y Z