Song name
# A B C D E F G H I J K L M N O P Q R S T U V W X Y Z

Mum - The Colorful Stabwound chords

Highlighted       Show chord diagrams
Intro

Bm   (Bm7)   A   (A7)   Bm   G  [x2]


e|-----------------7-------------------7---------------------------------------|
B|--7--7--7-------------7--7--7------------------------------------------------|
G|-7--7--7--7-4/7------7--7--7--7-4/7------------------------------------------|
D|-----------------------------------------------------------------------------|
A|-----------------------------------------------------------------------------|
E|-----------------------------------------------------------------------------|

e|-----------------------------------------------------------------------------|
B|---7--7--7-------------------------------------------------------------------|
G|--7--7--7--7-4/7--------7--7--7----7-----------------------------------------|
D|------------------9----9--9--9--9-9--9---------------------------------------|
A|-----------------------------------------------------------------------------|
E|-----------------------------------------------------------------------------|


Verse 1

Bm                                                  A
Some people smile with every tooth
Bm                                                     G
Some teeth will ache with every smile
Bm                                                        A
I've said some things that ain't the truth
Bm                                                                    G
I've screamed some words that might seem vile

Instrumental [x2]

e|-----------------7-------------------7---------------------------------------|
B|--7--7--7-------------7--7--7------------------------------------------------|
G|-7--7--7--7-4/7------7--7--7--7-4/7------------------------------------------|
D|-----------------------------------------------------------------------------|
A|-----------------------------------------------------------------------------|
E|-----------------------------------------------------------------------------|

e|-----------------------------------------------------------------------------|
B|---7--7--7-------------------------------------------------------------------|
G|--7--7--7--7-4/7--------7--7--7----7-----------------------------------------|
D|------------------9----9--9--9--9-9--9---------------------------------------|
A|-----------------------------------------------------------------------------|
E|-----------------------------------------------------------------------------|


Verse 2

Bm                                                     A
Some people smile with all their teeth
Bm                                                     G
Some teeth will ache with every smile
Bm                                                        A
I've done some things you won't believe
Bm                                                                   G
I've stabbed and scratched and spewed my bile


Instrumental
Bm A Bm G


Bm                                                   A
Some people smile with all their teeth   (Some teeth will ache with every smile)
Bm                                                        G
I've done some things you won't believe
Bm                                                    A
I've said some things that ain't the truth   (I've screamed some words that might seem vile)
Bm                                                        G
I've done some things you won't believe

Outro

e|-----------------7-------------------7---------------------------------------|
B|--7--7--7-------------7--7--7------------------------------------------------|
G|-7--7--7--7-4/7------7--7--7--7-4/7------------------------------------------|
D|-----------------------------------------------------------------------------|
A|-----------------------------------------------------------------------------|
E|-----------------------------------------------------------------------------|

e|-----------------------------------------------------------------------------|
B|---7--7--7-------------------------------------------------------------------|
G|--7--7--7--7-4/7--------7--7--7----7-----------------------------------------|
D|------------------9----9--9--9--9-9--9---------------------------------------|
A|-----------------------------------------------------------------------------|
E|-----------------------------------------------------------------------------|
Tap to rate this tab
 
# A B C D E F G H I J K L M N O P Q R S T U V W X Y Z