Guitaretab - guitar tabs
Song name
# A B C D E F G H I J K L M N O P Q R S T U V W X Y Z

Mumford And Sons - Hold On To What You Believe tab

Intro:     Am

(You can hit the a string inbetween to make it sound better)

Verse:

    Am        G         C

||--0---------3---------0----------------------|
||--1--------(3)--------1----------------------|
||--2---------0---------0----------------------|
||--2---------0---------2----------------------|
||--0---------2---------3----------------------|
||--0---------3--------------------------------|


Verse:


Am(4x)	                              G(1x)    C(4x)
I,  I can't promise you that I won't let you down
Am(4x)
And I,
                                        G(1x)      C(2x)
I can't promise you that I will be the only one around
           G(1x)      C(4x)
When your hope falls down


            Am(4x)
But we're young
                                          G(1x)    C(4x)
Open flowers in the windy fields of this war-torn world
     Am(4x)
And love
                                         G(1x)      C(1x) G(1x)     C(4x)
This city breathes the plague of loving things more than their creators


Then:

     Am      	          		      
||---0------------------------------------|
||---1------------------------------------|
||---2------------------------------------|
||---2----------0--2--0~~~----------------|
||---0----2--3----------------------------|
||----------------------------------------|

       Am(4x)
I ran away
                                    G(1x)   C(4x)
I could not take the burden of both me and you
            Am(4x)
It was too fast
                                    G(1x)             C(2x)
Casting love on me as if it were a spell I could not break
                G(1x)             C(4x)
When it was a promise I could not make


Pre-Chorus:

            Em C    G(2x)
But what if I was wrong? 

            Em C    G(2x)
But what if I was wrong? 

            Em C    G(4x)
But what if I was wrong? 


Chorus:

         Am     G          C(2x)   Am    G         C(2x)
But hold on to what you believe            in the light
          Am   	  G      C(2x)             G(4x)
When the darkness   has robbed you of all your sight
[ Tab from: http://www.guitaretab.com/m/mumford-and-sons/206491.html ]
         Am     G          C(2x)   Am    G         C(2x)
But hold on to what you believe            in the light
          Am   	  G      C(2x)             G(4x)
When the darkness   has robbed you of all your sight


Then:

     Am      	          		      
||---0------------------------------------------|
||---1------------------------------------------|
||---2------------------------------------------|
||---2----------0--2--0~~~--0/2--0--------------|
||---0----2--3----------------------2--3--0~~~--|
||----------------------------------------------|

          	        	      
||-----------------------------------|
||-----------------------------------|
||-----------------------------------|
||---------0--2--0~~~----------------|
||---2--3----------------------------|
||-----------------------------------|


Verse:

              Am(4x)
And now this land
                                                  G(1x)      C(4x)
Means less and less to me without you breathing through its trees
          Am(4x)
At every turn
                                     G(1x)     C(2x)
The water runs away from me and the halo disappears
                   G(1x)      C(4x)
And the hole when you're not near


Pre-Chorus:

            Em C    G(2x)
But what if I was wrong? 

            Em C    G(2x)
But what if I was wrong? 

            Em C    G(4x)
But what if I was wrong? 


Chorus:

         Am     G          C(2x)   Am    G         C(2x)
But hold on to what you believe            in the light
          Am   	  G      C(2x)             G(4x)
When the darkness   has robbed you of all your sight

         Am     G          C(2x)   Am    G         C(2x)
But hold on to what you believe            in the light
          Am   	  G      C(2x)             G(4x)
When the darkness   has robbed you of all your sight


Instrumental: Just play some chords that fit in. (Am-G-C)


Outro:

       (Am     G          C(2x)   Am    G         C~~~) <- just piano
So hold on to what you believe            in the light...




..fantastic song by a great band!
hope it works for you!
any corrections or questions? -> mail to MisterS4T4N@web.de

(i used version 1 of this song as basis, thank you for publishing it)
Related for Hold On To What You Believe tab
×
Best way to learn
"Hold On To What You Believe"