Song name
# A B C D E F G H I J K L M N O P Q R S T U V W X Y Z

Mumford And Sons - Sigh No More tab

-------------------------------------------------------------------------------
			     Sigh No More - Mumford & Sons
-------------------------------------------------------------------------------

Tabbed by: Thom
Email: thom.curran@gmail.com

Tuning: EADGCE

Chords:

C: x32000
Am: x02200
Em: 022xxx
G?: 355xxx
A?: 577xxx
F?: 133xxx


C & Am are picked for the verses, listen to track to get timing:

     C
||---------------|
||---0--0--0-----|
||---------------|
||---------------|
||---3--3--3-----|
||---------------|ETC

Serve God Love Me...

     C
||---------------|
||---0--0--0-----|
||---------------|
||---------------|
||---3--3--3-----|
||---------------|ETC

This Is Not The End...

     C
||---------------|
||---0--0--0-----|
||---------------|
||---------------|
||---3--3--3-----|
||---------------|ETC

Live Unbruised We are Friends...

Am
   Am
||-0-------------|
||-0-0--0--0-----|
||-2-------------|
||-2-------------|
||-0-0--0--0-----|
||---------------|ETC

Im Sorry...

   C
||-0-------------|
||-0-0--0--0-----|
||-0-------------|
||-2-------------|
||-3-3--3--3-----|
||---------------|ETC

Im Sorry...


     C  *  *
||---------------|
||---4--2--0-----|
||---------------|
||---------------|
||---3--3--3-----|
||---------------|ETC


     C  *  *
||---------------|
||---4--2--0-----|
||---------------|
||---------------|
||---3--3--3-----|
||---------------|ETC

Sigh no more, no more
One foot in sea one on shore
My heart was never pure

   Am
||-0-------------|
||-0-0--0--0-----|
||-2-------------|
||-2-------------|
||-0-0--0--0-----|
||---------------|ETC

And you know me

   C
||-0-------------|
||-0-0--0--0-----|
||-0-------------|
||-2-------------|
||-3-3--3--3-----|
||---------------|ETC

And you know me


Am            G?      C
And man is a giddy thing
Am            G?      C
Oh man is a giddy thing
Am            G?      C
Oh man is a giddy thing
Am            G?      C
Oh man is a giddy thing

Em                   C                     G?
Love that will not betray you, dismay or enslave you,
        A?   G?   F?
It will set you free
                 C            Am G?  C
Be more like the man you were made to be.
Em            C                     G?
There is a design, An alignment to cry,
        A?   G?   F?
At my heart you see,
               C              Am  G?  C?
The beauty of love as it was made to be (x4)


Not sure of the correct names for some of the chords (not music literate) though this is 
close as i can get it from ear. Don't forget to tune the B string up 1/2 step to C!!

Hope this helps,

GOD BLESS

Thom.
Tap to rate this tab
 
# A B C D E F G H I J K L M N O P Q R S T U V W X Y Z