Song name
# A B C D E F G H I J K L M N O P Q R S T U V W X Y Z

Mumford And Sons - Sigh No More tab

-------------------------------------------------------------------------------
			     Sigh No More - Mumford and Sons
-------------------------------------------------------------------------------
Tabbed by: Mark Rodger
Email:mrodger27@gmail.com

Hope you can follow this as it is my first tab!!

Tuning: Drop E to C
        Tune B to C

Intro/Verse 1:          Serve god, love me and mend

e|---------------------------------------------------------------------------|
C|---0---0---0--------0---0--0-----------------------------------------------|
G|---------------------------------------------------------------------------|
D|---------------------------------------------------------------------------|
A|---3---2---3--------3---3--3-----------------------------------------------|
C|---------------------------------------------------------------------------|

I'm Sorry...  (fingerpicked)

e|---0---------0---------------------------------------------------------------|
C|---0---------0---------------------------------------------------------------|
G|---0---------0---------------------------------------------------------------|
D|---2---------2---------------------------------------------------------------|
A|---0---------3---------------------------------------------------------------|
C|-----------------------------------------------------------------------------|

Repeat intro with this variation for verse 2:
e|--------------------------------------------------------------------------------|
C|---4---2--0---------------------------4----2---0--------------------------------|
G|-------------------0-2-0--------------------------------------------------------|
D|------------------------0-2-0---------------------------------------------------|
A|---3---3--3---------------------------3----3---3--------------------------------|
C|--------------------------------------------------------------------------------|

Repeat You know me.. 		Oh Man is a giddy thing
e|---0----0----------------------0----0----0---------------------------------|
C|---0----0----------------------0----0----0---------------------------------|
G|---0----0----------------------0----0----0---------------------------------|
D|---2----2----------------------2----0----2---------------------------------|
A|---0----3----------------------0----8----3---------------------------------|
C|------------------------------------5--------------------------------------|

Then palm muted

e|---------------------------------------------------------------------------|
C|---------------------------------------------------------------------------|
G|---------------------------------------------------------------------------|
D|---2-2---------------------------------------------------------------------|
A|---3-3---------------------------------------------------------------------|
C|---0-0---------------------------------------------------------------------|

Love it will not betray you, dismay or emslave you it will set you free...
e|-------------------------------------------------------------------------------|
C|-------------------------------------------------------------------------------|
G|-------------------------------------------------------------------------------|
D|---------------2---------------------------------------------------------------|
A|---2-----------3-----------------------10----------------12----10---8----------|
C|---0-----------0-----------------------7-----------------9-----7----5----------|

Be more like the man   you were made to be.
e|-----------------------------------------------------------------------------|
C|-----------------------------------------------------------------------------|
G|-----------------------------------------------------------------------------|
D|--2----------------------------2---0--2--------------------------------------|
A|--3----------------------------0---8--3--------------------------------------|
C|--0----------------------------0---5--0--------------------------------------|

Then when whole band comes in you can really go for it...

Love it will not betray you, dismay or enslave you it will set you free...
e|---------------0-----------------------0-----------------0-----0----0----------|
C|---0-----------0-----------------------0-----------------0-----0----0----------|
G|---0-----------0-----------------------0-----------------0-----0----0----------|
D|---0-----------2-----------------------0-----------------0-----0----0----------|
A|---2-----------3-----------------------10----------------12----10---8----------|
C|---0-----------0-----------------------7-----------------9-----7----5----------|

Be more like the man   you were made to be
e|--0----------------------------0---0--0--------------------------------------|
C|--0----------------------------0---0--0--------------------------------------|
G|--0----------------------------0---0--0--------------------------------------|
D|--2----------------------------2---0--2--------------------------------------|
A|--3----------------------------0---8--3--------------------------------------|
C|--0----------------------------0---5--0--------------------------------------|

e|---------------------------------------------------------------------------|
C|---------------------------------------------------------------------------|
G|---------------------------------------------------------------------------|
D|---------------------------------------------------------------------------|
A|---------------------------------------------------------------------------|
C|---------------------------------------------------------------------------|

Thats it. Just listen to the cd and play around with the strumming and fingerpicking. 
an uplifting and brilliant song
I needed to share it.

************************************

| /   slide up
| \   slide down
| h   hammer-on
| p   pull-off
| ~   vibrato
| +   harmonic
| x   Mute note
| b   Bend
| pb  Pre-bend
| br  Bend release
| pbr Pre-bend release
| brb Bend release bend

************************************
Tap to rate this tab
 
# A B C D E F G H I J K L M N O P Q R S T U V W X Y Z