Song name
# A B C D E F G H I J K L M N O P Q R S T U V W X Y Z

Mumford And Sons - After The Storm tab

The pattern for the verse is pretty much the same throughout:

e|------------|
B|------------|
G|--x--x--x--x|  ect.
D|------------|
A|------------|
E|-x--x--x--x-|

So I will give you the notes
its simple enough

e|------------     -----------------------------------------|
B|------------     -----------------------------------------|
G|-4--5--2--4-     -7--5--9--12--11--12--11--14--16--12--11-| 
D|------------ x2  -----------------------------------------|
A|------------     -----------------------------------------|
E|-3--5--2--3-     -7--5--8--12--10--12--10--14--15--12--10-|

Pre Chorus: ("I took you by the hand, and we stood tall")
e|-----------------------------------------------------------------|
B|-------------------------------0---------------------------------|
G|-------0-------0-------0-----0---------0-------0-------0-------0-| x2
D|-----2-------2-------2-----2---------0-------0-------0-------0---|
A|---2-------2-------2-----3---------2-------2-------2-------2-----|
E|-0-------0-------0---------------3-------3-------3-------3-------|

Chorus: ("There will come a time, you'll see")
e|-----------------------------------------|
B|-------0-------0-------------------------|
G|-----0-------0---------------------------|
D|---3-------5-------3-3---3-3---3-3---3-3-|
A|-2-------7-------------------------------|
E|-----------------3-----3-----3-----3-----|

Sorry, I know its lazy tabing but I hope you get the idea
enjoy
Tap to rate this tab
# A B C D E F G H I J K L M N O P Q R S T U V W X Y Z