Song name
# A B C D E F G H I J K L M N O P Q R S T U V W X Y Z

Mumford And Sons - Sigh No More tab

Mumford and Sons  Sigh No More
Tuning  CACGCE

Intro
E-------------------------------------------------------|
C--0-0-0-0-0-0-0-0-0-0-0-0-0-0-0-0---0-0-0-0-0-0-0-0----|
G--0-0-0-0-0-0-0-0-0-0-0-0-0-0-0-0---0-0-0-0-0-0-0-0----|
C-------------------------------------------------------|
A-3-3-3-3-3-3-3-3-3-3-3-3-3-3-2-2-2/3-3-3-3-3-3-3-3-----|
C-------------------------------------------------------|

E-------------------------------------------------------|
C--0-0-0-0-0-0-0-0--------------------------------------|
G--0-0-0-0-0-0-0-0--------------------------------------|
C-------------------------------------------------------|
A-3-3-3-3-3-3-3-3---------------------------------------|
C-------------------------------------------------------|

Verse 1

E----------------------------------------|
C--4-4-4-4-2-2-2-2-0-0-0-0-0-0-0-0-------|
G--0-0-0-0-0-0-0-0-0-0-0-0-0-0-0-0-------|
C----------------------------------------|   x3
A-3-3-3-3-2-2-2-2-3-3-3-3-3-3-3-3--------|
C----------------------------------------|

E----------------------------------------|
C--4-4-4-4-4-4-4-4-4-0-0-0-0-0-0-0-0-----|
G--2-2-2-2-2-2-2-2-2-0-0-0-0-0-0-0-0-----|   
C----------------------------------------|   x2
A-0-0-0-0-0-0-0-0-0-3-3-3-3-3-3-3-3------|
C----------------------------------------|

Then

E----------------------------------------|
C--4-4-4-4-2-2-2-2--0-0-0-0-0-0-0-0------|
G--0-0-0-0-0-0-0-0--0-0-0-0-0-0-0-0------|
C----------------------------------------|   x2
A-3-3-3-3-2-2-2-2--3-3-3-3-3-3-3-3-------|
C----------------------------------------|

Verse 2

E----------------------------------------|
C--4-4-4-4-2-2-2-2-0-0-0-0-0-0-0-0-------|
G--0-0-0-0-0-0-0-0-0-0-0-0-0-0-0-0-------|
C----------------------------------------|   x3
A-3-3-3-3-2-2-2-2-3-3-3-3-3-3-3-3--------|
C----------------------------------------|
  Let ring           Let ring
E-0------------------0------------------|
C-4--4-4-4-4-4-4-4-4-0--0-0-0-0-0-0-0---|
G-2--2-2-2-2-2-2-2-2-0--0-0-0-0-0-0-0---|   
C-0------------------0------------------|   x2
A-0---0-0-0-0-0-0-0--3---3-3-3-3-3-3----|
C--------------------0------------------|

Bridge                    

E-0----0----0----|             
C-0----0----0----|              
G-2----0----0----|             
C-0----0----0----|  x4  
A-0----8----3----|    
C-0----5----0----|        

Then Palm Mute
      
E-0--|             
C-0--|              
G-0--|             
C-0--|  Approx 16x   
A-3--|    
C-0--|     

Ending

 Love Betray Enslave Set  You  Free The man  Made To  Be
E-0------0------0-----0----0----0------0------0---0---0-|
C-0------0------0-----0----0----0------0------0---0---0-|
G-0------0------0-----0----0----0------0------2---0---0-|
C-0------0------0-----0----0----0------0------0---0---0-|
A-2------3------10----12---10---8------3------0---8---3-|
C-0------0------7-----9----7----5------0------0---5---0-|

There  Design  Cry  Heart  To  See  Of love  Made To  Be   
E-0------0------0-----0----0----0------0------0---0---0-|
C-0------0------0-----0----0----0------0------0---0---0-|
G-0------0------0-----0----0----0------0------2---0---0-|
C-0------0------0-----0----0----0------0------0---0---0-|
A-2------3------10----12---10---8------3------0---8---3-|
C-0------0------7-----9----7----5------0------0---5---0-|

Repeat x3
Tap to rate this tab
 
# A B C D E F G H I J K L M N O P Q R S T U V W X Y Z