Song name
# A B C D E F G H I J K L M N O P Q R S T U V W X Y Z

Mumford And Sons - Roll Away Your Stone tab

Mumford And Sons - Roll Away Your Stone
--------------------------------------------

Tuning: standard

Original name :  Merrily Kissed the Quaker
By : Thierry Tisserand

Intro-
||--0h2h4-----4--5--2--4-2-0---0h2h4---------0-2-2-2----|
||---------0----------------------------0h2-------------|
||------------------------------------------------------|
||------------------------------------------------------|
||---------------------------------------------2---2----|
||--0------0-----0-----0-------0--------0---------------|

||--0h2h4-----4--5--2--4-2-0---0h2h4--------0--2-0--0---|
||---------0----------------------------0h2---------0---|
||--------------------------------------------------1---|
||--------------------------------------------------2---|
||---------------------------------------------2----2---|
||--0------0-----0-----0-------0--------0-----------0---|
 
Tap to rate this tab
# A B C D E F G H I J K L M N O P Q R S T U V W X Y Z