Song name
# A B C D E F G H I J K L M N O P Q R S T U V W X Y Z

Mumford And Sons - The Cave tab

-------------------------------------------------------------------------------
			     THE CAVE - Mumford and Sons
-------------------------------------------------------------------------------
Tabbed by: Sarahhh
Email: sarah_cfc_06@hotmail.co.uk

Tuning: standard - EADGBe

e|---4---2--0---------0----0----------|
B|-------------0--2------2------------|
G|-----------------------------4--4---|  X2
D|------------------------------------|
A|------------------------------------|
E|------------------------------------|

e|------0-----0-----0-----2--0-|
B|0--2-----2----------4--------|
G|---------------4-------------|
D|-----------------------------|
A|-----------------------------|
E|-----------------------------|




e|---0--7--4--5--5--4--0--7--4--5--5--4--5--5--4--2--0-----4--2----------------|
B|-------------------------------------------------------2---------------------|
G|-----------------------------------------------------------------------------|
D|-----------------------------------------------------------------------------|
A|-----------------------------------------------------------------------------|
E|-----------------------------------------------------------------------------|

e|---7--9-----4--5--5--4--0--9-----4--5--5--4--4--5--5--4--2--0-----4--2----|
B|---------------------------------------------------------------2----------|
G|--------------------------------------------------------------------------|
D|--------------------------------------------------------------------------|
A|--------------------------------------------------------------------------|
E|--------------------------------------------------------------------------|

************************************

| /   slide up
| \   slide down
| h   hammer-on
| p   pull-off
| ~   vibrato
| +   harmonic
| x   Mute note
| b   Bend
| pb  Pre-bend
| br  Bend release
| pbr Pre-bend release
| brb Bend release bend

************************************
Tap to rate this tab
 
# A B C D E F G H I J K L M N O P Q R S T U V W X Y Z