Mumford And Sons - Timshel tab

-------------------------------------------------------------------------------
                             Timshel - Mumford and Sons
-------------------------------------------------------------------------------
Tabbed by:zco16122
Email:zco16122@aim.com

Tuning: Tune the guitar a whole step down so it will be:
d
A
F
C
G
D

Chords used in verse:

G:

d|---3-----------------------------------------------------------------------|
A|---------------------------------------------------------------------------|
F|---------------------------------------------------------------------------|
C|---------------------------------------------------------------------------|
G|---2-----------------------------------------------------------------------|
D|---3-----------------------------------------------------------------------|

C:

d|---3-----------------------------------------------------------------------|
A|---------------------------------------------------------------------------|
F|---------------------------------------------------------------------------|
C|---2-----------------------------------------------------------------------|
G|---3-----------------------------------------------------------------------|
D|---------------------------------------------------------------------------|

Pinky should play the note on the high d string.

Chords used in chorus:

D:

d|---3-----------------------------------------------------------------------|
A|---2-----------------------------------------------------------------------|
F|---3-----------------------------------------------------------------------|
C|---------------------------------------------------------------------------|
G|---------------------------------------------------------------------------|
D|---------------------------------------------------------------------------|

C:

d|---------------------------------------------------------------------------|
A|---1-----------------------------------------------------------------------|
F|---------------------------------------------------------------------------|
C|---2-----------------------------------------------------------------------|
G|---3-----------------------------------------------------------------------|
D|---------------------------------------------------------------------------|

G:

d|---3-----------------------------------------------------------------------|
A|---------------------------------------------------------------------------|
F|---------------------------------------------------------------------------|
C|---------------------------------------------------------------------------|
G|---2-----------------------------------------------------------------------|
D|---3-----------------------------------------------------------------------|

Em:

d|---------------------------------------------------------------------------|
A|---------------------------------------------------------------------------|
F|---------------------------------------------------------------------------|
C|---2-----------------------------------------------------------------------|
G|---2-----------------------------------------------------------------------|
D|---------------------------------------------------------------------------|

Dsus4:

d|---------------------------------------------------------------------------|
A|---3-----------------------------------------------------------------------|
F|---------------------------------------------------------------------------|
C|---4-----------------------------------------------------------------------|
G|---5-----------------------------------------------------------------------|
D|---------------------------------------------------------------------------|

Fill goes something like this (listen to the song for timing):

d|---------------------------------3-----------------------------------------|
A|------0h1----------1p0----------------------0------------------------------|
F|------------0------------0-----------0-------------------------------------|
C|---------------------------------------------------------------------------|
G|---------------------------------------------------------------------------|
D|---3-----------3-------------3-----------3---------------------------------|

The walk down to Em from G in the chorus goes like:

d|----3----3-----------------------------------------------------------------|
A|---------------------------------------------------------------------------|
F|---------------------------------------------------------------------------|
C|--------------2------------------------------------------------------------|
G|----2----2----2------------------------------------------------------------|
D|----3----2-----------------------------------------------------------------|

End of the song climax/breakdown: C and Dsus4 are the same as in chorus but Em is played 
up on the neck like this:

d|---------------------------------------------------------------------------|
A|---------------------------------------------------------------------------|
F|---------------------------------------------------------------------------|
C|----5----------------------------------------------------------------------|
G|----7----------------------------------------------------------------------|
D|----7----------------------------------------------------------------------|


Listen to the song to get the picking pattern.

Song goes like this, with chords placed over where they occur:

Verse:

G
Cold is the water
                C
It freezes your already cold mind
                    G       (fill)
Already cold, cold mind
G
And death is at your doorstep
                        C
And it will steal your innocence
                             G         (fill)
But it will not steal your substance

Chorus:

    D           C         G
But you are not alone in this
    C           Em        G
And you are not alone in this
    C               Dsus4           G         Em    <--(walk down)
As brothers we will stand and we'll hold your hand
Em         G
Hold your hand

(fill)

Verse:

G
And you are the mother
                    C
The mother of your baby child
                          G     (fill)
The one to whom you gave life
G
And you have your choices
                    C
And these are what make man great
                   G            (fill)
His ladder to the stars

Chorus:

    D            C         G
But you are not alone in this
     C          Em        G
And you are not alone in this
     C              Dsus4            G        Em      <--(walk down)
As brothers we will stand and we'll hold your hand
Em         G
Hold your hand

(fill , build up momentum to strumming)

Climax/Breakdown:

    C Dsu4  Em   C    G
And I will tell the night
C    Dsus4   Em   C    G
Whis-per,   "Lose your sight"
    C Dsus4  Em   C   G     C          G
But I can't  move the moun-tains for you


Don't forget to play the Em differently on that last bit and play the C the same you 
as in the chorus.

Hope this was helpful it is a beautiful song.
Tap to rate this tab
 
# A B C D E F G H I J K L M N O P Q R S T U V W X Y Z