Song name
# A B C D E F G H I J K L M N O P Q R S T U V W X Y Z

Mumford And Sons - Untitled tab

-------------------------------------------------------------------------------
                             UNTITLED  Mumford & Sons
-------------------------------------------------------------------------------
Tabbed by: Steve Law
Email: steve.law444@tiscali.co.uk

Notes: Hey all! Great song this one, of their best in my opinion.
Shame its not as popular as some of the others.
Anyway, as far as I can make out this is correct and theres no
other tabs for this so play away.


Tuning: DADF#AE

 Intro  [PICKING]

  E |------0----------0----------0----------0----------0----------0-------------| x2
  A |------5----------0----------0----------0----------0----------0-------------|
  F#|------0----------3----------0----------5----------3----------7-------------|
  D |------4----------2----------0----------0----------4----------0-------------|
  A |------2----------4----------0----------0----------0----------0-------------|
  D |------0----------0----------0----------5----------4----------7-------------|


Verse 1


  E |-------0----------------0-------------------0--------------------0---------| x2
  A |-------0----------------0-------------------0--------------------0---------|
  F#|-------0----------------5-------------------0--------------------7---------|
  D |-------0----------------0-------------------0--------------------0---------|
  A |-------0----------------0-------------------0--------------------0---------|
  D |-------0----------------5-------------------0--------------------7---------|

     I came home,     like a stone,    and I fell heavy      into your arms

These days of dust, which weve known,  will blow away,  with this new sun

Chorus

  E |------0----------0----------0----------0----------0----------0-------------| x2
  A |------5----------0----------0----------0----------0----------0-------------|
  F#|------0----------3----------0----------5----------3----------7-------------|
  D |------4----------2----------0----------0----------4----------0-------------|
  A |------2----------4----------0----------0----------0----------0-------------|
  D |------0----------0----------0----------5----------4----------7-------------|

    And Ill         kneel       down,      wait       for        now
   
    And Ill         kneel       down,      wait       for        now

Verse 2

  E |-------0----------------0-------------------0--------------------0---------| x2
  A |-------0----------------0-------------------0--------------------0---------|
  F#|-------0----------------5-------------------0--------------------7---------|
  D |-------0----------------0-------------------0--------------------0---------|
  A |-------0----------------0-------------------0--------------------0---------|
  D |-------0----------------5-------------------0--------------------7---------|

So break my step,        and relent.    Well you forgave,  and I wont forget

Know what weve seen, and him with less.  Know in someway,   shake the excess

Chorus

  E |------0----------0----------0----------0----------0----------0-------------| x2
  A |------5----------0----------0----------0----------0----------0-------------|
  F#|------0----------3----------0----------5----------3----------7-------------|
  D |------4----------2----------0----------0----------4----------0-------------|
  A |------2----------4----------0----------0----------0----------0-------------|
  D |------0----------0----------0----------5----------4----------7-------------|

    And Ill         kneel       down,      wait       for        now
   
    And Ill         kneel       down,      know       my         ground


Verse 3  [START STRUMMING]


  E |-------0----------------0-------------------0--------------------0---------| x2
  A |-------0----------------0-------------------0--------------------0---------|
  F#|-------0----------------5-------------------0--------------------7---------|
  D |-------0----------------0-------------------0--------------------0---------|
  A |-------0----------------0-------------------0--------------------0---------|
  D |-------0----------------5-------------------0--------------------7---------|

Now Ill be bold, as well as strong. And hold my head    alongside my heart

So take my flesh, and fix my eyes    and tear the night, free from the lies


Chorus

  E |------0----------0----------0----------0----------0----------0-------------| x2
  A |------5----------0----------0----------0----------0----------0-------------|
  F#|------0----------3----------0----------5----------3----------7-------------|
  D |------4----------2----------0----------0----------4----------0-------------|
  A |------2----------4----------0----------0----------0----------0-------------|
  D |------0----------0----------0----------5----------4----------7-------------|

    And Ill         kneel       down,      wait       for        now
   
    And Ill         kneel       down,      know       my         ground

  E |------0----------0----------0----------0----------0----------0-------------|
  A |------0----------0----------0----------0----------0----------0-------------|
  F#|------8----------10---------12---------5----------3----------7-------------|
  D |------9----------11---------0----------0----------4----------0-------------|
  A |------0----------0----------0----------0----------0----------0-------------|
  D |------9----------11---------12---------5----------4----------7-------------|


    And Ill         kneel       down,      wait       for        now


Ending

  E |------0----------0----------0----------0----------0----------0-------------| x6
  A |------0----------0----------0----------0----------0----------0-------------|
  F#|------12---------10---------8----------5----------3----------7-------------|
  D |------0----------11---------9----------0----------4----------0-------------|
  A |------0----------0----------0----------0----------0----------0-------------|
  D |------12---------11---------9----------5----------4----------7-------------|

  [No words first two times, then repeat these lyrics twice for the last 4 times]

           Raise      my         hands.     Paint my   spirit     gold

           Bow        my         head.      Keep my    heart      slow


************************************************************************************

There you have it! Any comments/ suggested changes much appreciated
Tap to rate this tab
 
# A B C D E F G H I J K L M N O P Q R S T U V W X Y Z