Song name
# A B C D E F G H I J K L M N O P Q R S T U V W X Y Z

Mumford And Sons - The Cave tab

This is just the beginning of the song. But I think it enough to continue :)

Mumford and Sons - The Cave

Capo 2nd fret

Intro
E ||-------------------------------------------------|
A ||-------------------------------------------------|
F#||-------------------0-------0-------0-------------|
D ||--/4--2--0-------0---0---0---0---0---0-----------|
A ||------------0--2-------2-------0-----------------|
D ||-------------------------------------------------| 
                                                     |
E ||-------------------------------------------------|
A ||----------------------------5---0----------------|
F#||-----------------0----------5---0----------------|
D ||------4------------0--------5---0----------------|
A ||----4---4------0--------0---5---0----------------|
D ||--4-------4--0--------0--------------------------|

Verse					    herhalen 1e & 2e  3e
E ||-------------------------------------|----|------|
A ||-------------------------------------|----|------|
F#||-------------------0-------0-------0-|---o|------|
D ||--/4--2--0-------0---0---0---0---0---|---o|--0---|
A ||------------0--2-------2-------0-----|-0--|------|
D ||-------------------------------------|----|------| 
                                                     |
E ||-------------------------------------------------|
A ||----------------------------5---0----------------|
F#||-----------------0----------5---0----------------|
D ||------4------------0--------5---0----------------|
A ||----4---4------0--------0---5---0----------------|
D ||--4-------4--0--------0--------------------------|

Chorus 
E ||---------------------------------------------------------|
A ||---------------------------------------------------------|
F#||-0-0-0-0--5-5--0-0--0-0-0-0--5-5--0-0--5-5--0-0--7-7-7-7-|
D ||-0-0-0-0--5-5--0-0--0-0-0-0--5-5--0-0--5-5--0-0--7-7-7-7-|
A ||-0-0-0-0--5-5--0-0--0-0-0-0--5-5--0-0--5-5--0-0--7-7-7-7-|
D ||-0-0-0-0--5-5--0-0--0-0-0-0--5-5--0-0--5-5--0-0--7-7-7-7-| 
     P.M.  
E ||---------------------------------------------------------|
A ||---------------------------------------------------------|
F#||-9-9-9-9--5-5--0-0--9-9-9-9--5-5--0-0--5-5--0-0--7-7-7-7-|
D ||-9-9-9-9--5-5--0-0--9-9-9-9--5-5--0-0--5-5--0-0--7-7-7-7-|
A ||-9-9-9-9--5-5--0-0--9-9-9-9--5-5--0-0--5-5--0-0--7-7-7-7-|
D ||-9-9-9-9--5-5--0-0--9-9-9-9--5-5--0-0--5-5--0-0--7-7-7-7-| 
     P.M.  

Hope you liked it, and that it was useful.
Madorian.
Tap to rate this tab
 
# A B C D E F G H I J K L M N O P Q R S T U V W X Y Z