Song name
# A B C D E F G H I J K L M N O P Q R S T U V W X Y Z

Mumford And Sons - Winter Winds tab

-------------------------------------------------------------------------------
			     WINTER WINDS -- Mumford & Sons
-------------------------------------------------------------------------------
Tabbed by: Matt Whiteley
Email: matthewjameswhiteley@live.co.uk

Tuning: D A D F# A d

I think this has a time signature resembling 2/4 or 6/8. I could be wrong :) Listen to 
the song for the strum pattern. Cheers

Intro/Choruses
d |--0--000----0--000----0--000----0--000---------------------------------------|
A |--0--000----0--000----0--000----0--000---------------------------------------|
F#|--0--000----0--000----0--000----0--000---------------------------------------|
D |--0--000----0--000----0--000----0--000---------------------------------------|
A |--5--555----5--555----0--000----0--000---------------------------------------|
D |--5--555----5--555----0--000----0--000---------------------------------------|

d |--0--000----0--000----0--000-0-0-0--0--000-0-0-0-----------------------------|
A |--0--000----0--000----0--000-0-0-0--0--000-0-0-0-----------------------------|
F#|--0--000----0--000----0--000-0-0-0--0--000-0-0-0-----------------------------|
D |--0--000----0--000----0--000-0-0-0--0--000-0-0-0-----------------------------|
A |--5--555----0--000----7--777-7-7-7--7--777-7-7-7-----------------------------|
D |--5--555----0--000----7--777-7-7-7--7--777-7-7-7-----------------------------|

									REPEAT ONCE
|===============================================================================|

Verses
As the winter winds...
d |--0--000---0--000---0--000---0--000---0--000---0--000---0--000---0--000---|
A |--0--000---0--000---0--000---0--000---0--000---0--000---0--000---0--000---|
F#|--0--000---0--000---0--000---0--000---0--000---0--000---0--000---0--000---|
D |--0--000---0--000---0--000---0--000---0--000---0--000---0--000---0--000---|
A |--0--000---0--000---7--777---7--777---9--999---9--999---5--555---5--555---|
D |--0--000---0--000---7--777---7--777---9--999---9--999---5--555---5--555---|

The warmth in your eyes...
d |--0--000---0--000---0--000---0--000---0--000---0--000---0--000---0--000---|
A |--0--000---0--000---0--000---0--000---0--000---0--000---0--000---0--000---|
F#|--0--000---0--000---0--000---0--000---0--000---0--000---0--000---0--000---|
D |--0--000---0--000---0--000---0--000---0--000---0--000---0--000---0--000---|
A |--0--000---0--000---7--777---7--777---9--999---9--999---5--555---5--555---|
D |--0--000---0--000---7--777---7--777---9--999---9--999---5--555---5--555---|

Was it love...
d |--0--000---0--000---0--000---0--000---0--000---0--000---0--000---0--000---|
A |--0--000---0--000---0--000---0--000---0--000---0--000---0--000---0--000---|
F#|--0--000---0--000---0--000---0--000---0--000---0--000---0--000---0--000---|
D |--0--000---0--000---0--000---0--000---0--000---0--000---0--000---0--000---|
A |--0--000---0--000---7--777---7--777---9--999---9--999---5--555---5--555---|
D |--0--000---0--000---7--777---7--777---9--999---9--999---5--555---5--555---|

For every kiss...
d |--0--000---0--000---0--000---0--000---0--000---0--000---0--000---0--000---|
A |--0--000---0--000---0--000---0--000---0--000---0--000---0--000---0--000---|
F#|--0--000---0--000---0--000---0--000---0--000---0--000---0--000---0--000---|
D |--0--000---0--000---0--000---0--000---0--000---0--000---0--000---0--000---|
A |--0--000---0--000---7--777---7--777---9--999---9--999---5--555---5--555---|
D |--0--000---0--000---7--777---7--777---9--999---9--999---5--555---5--555---|
|===============================================================================|


There is also a breakdown bit. Play softly... you may or may not choose to mute D and A, 
but I like to play it on the high d string.

d |--0--000---0--000---7--777---7--777---9--999---9--999---5--555---5--555---|
A |--0--000---0--000---0--000---0--000---0--000---0--000---0--000---0--000---|
F#|--0--000---0--000---0--000---0--000---0--000---0--000---0--000---0--000---|
D |--0--000---0--000---0--000---0--000---0--000---0--000---0--000---0--000---|
A |--x--xxx---x--xxx---x--xxx---x--xxx---x--xxx---x--xxx---x--xxx---x--xxx---|
D |--x--xxx---x--xxx---x--xxx---x--xxx---x--xxx---x--xxx---x--xxx---x--xxx---|

d |--0--000---0--000---7--777---7--777---9--999---9--999---5--555---5--555---|
A |--0--000---0--000---0--000---0--000---0--000---0--000---0--000---0--000---|
F#|--0--000---0--000---0--000---0--000---0--000---0--000---0--000---0--000---|
D |--0--000---0--000---0--000---0--000---0--000---0--000---0--000---0--000---|
A |--x--xxx---x--xxx---x--xxx---x--xxx---x--xxx---x--xxx---x--xxx---x--xxx---|
D |--x--xxx---x--xxx---x--xxx---x--xxx---x--xxx---x--xxx---x--xxx---x--xxx---|
|===============================================================================|

Solo. Just play around with the melody on the higher strings.

d |--0--000----0--000----0--000----0--000---------------------------------------|
A |--0--000----0--000----0--000----0--000---------------------------------------|
F#|--0--000----3--333----3--333----3--333---------------------------------------|
D |--0--000----0--000----0--000----0--000---------------------------------------|
A |--5--555----5--555----0--000----0--000---------------------------------------|
D |--5--555----5--555----0--000----0--000---------------------------------------|

d |--0--000----0--000----0--000---0--000---0--000---0--000----------------------|
A |--0--000----0--000----0--000---0--000---0--000---0--000----------------------|
F#|--3--333----0--000----0--000---6--666---7--777---9--999----------------------|
D |--0--000----0--000----0--000---0--000---0--000---0--000----------------------|
A |--5--555----0--000----7--777---7--777---7--777---7--777----------------------|
D |--5--555----0--000----7--777---7--777---7--777---7--777----------------------|

REPEAT ONCE
|===============================================================================|


Order:

Intro
Verse 1
Chorus
Verse 2
Chorus
Verse 3 > strum each chord only once
Breakdown bit
Solo > play chorus without words
Final chorus > give it some



************************************

| /   slide up
| \   slide down
| h   hammer-on
| p   pull-off
| ~   vibrato
| +   harmonic
| x   Mute note
| b   Bend
| pb  Pre-bend
| br  Bend release
| pbr Pre-bend release
| brb Bend release bend

************************************
Tap to rate this tab
 
# A B C D E F G H I J K L M N O P Q R S T U V W X Y Z