Song name
# A B C D E F G H I J K L M N O P Q R S T U V W X Y Z

Mumford And Sons - Untitled tab

-------------------------------------------------------------------------------
			                Untitled (Lover's Eyes) - Mumford and Sons
-------------------------------------------------------------------------------
Tabbed by: Macheeoo
Email: macheeoo@yahoo.com

Tuning: D A D F# A D

Video page: http://kroq.radio.com/2011/02/13/kroqs-grammy-pre-party-mumford-sons-
really-folk-it-up-this-time-at-the-grammy-museum/

It is the 3rd video (entitled "Untitled")


Intro/Verse A (soft plucking)
d |-------------------------------------------------------------------------|
A |-------------------------------------------------------------------------|
F#|-------------------------------------------------------------------------|
D |--0-2-0-2-4-4-4-4-4-4-5-4-5-7-7-7-7-7-7-5-4-2-2-2-2-2-2-4-2-0-0-0-0-0-0~-|
A |-------------------------------------------------------------------------|
D |-0-0-0-0-0-0-0-0-0-0-0-0-0-0-0-0-0-0-0-0-0-0-0-0-0-0-0-0-0-0-0-0-0-0-0---|


Chorus (soft chords)
     G      D      A      D
d |--5------0------7------0------------------------------------------|
A |--5------0------7------0------------------------------------------|
F#|--5------0------7------0------------------------------------------|
D |--5------0------7------0------------------------------------------|
A |--5------0------7------0------------------------------------------|
D |--5------0------7------0------------------------------------------|


Verse B (Louder strumming)
e|--0--0--0--0--0--0--0--0--0--0--0--0--0--0--0--0--0--0--0--0--0-----------|
B|--0--0--0--0--0--0--0--0--0--0--0--0--0--0--0--0--0--0--0--0--0-----------|
G|--0--0--0--0--0--0--0--0--0--0--0--0--0--0--0--0--0--0--0--0--0-----------|
D|--0--2--0--2--4--4--5--4--5--7--7--5--4--2--2--4--2--0--0--0--0-----------|
A|--0--0--0--0--0--0--0--0--0--0--0--0--0--0--0--0--0--0--0--0--0-----------|
E|--0--0--0--0--0--0--0--0--0--0--0--0--0--0--0--0--0--0--0--0--0-----------|

Repeat Chorus (Louder Strumming)


Bridge A (Soft slow tempo)
    D      G   D      B        
e|--0------0---0------0-----------------------------------------------------|
B|--0------0---0------0-----------------------------------------------------|
G|--0------0---0------0-----------------------------------------------------|
D|--0------5---0------9-----------------------------------------------------|
A|--0------5---0------9-----------------------------------------------------|
E|--0------5---0------9-----------------------------------------------------|

Bridge B (Loud and Proud! same chords as Bridge A)
    D      G   D      B        
e|--0------0---0------0-----------------------------------------------------|
B|--0------0---0------0-----------------------------------------------------|
G|--0------0---0------0-----------------------------------------------------|
D|--0------5---0------9-----------------------------------------------------|
A|--0------5---0------9-----------------------------------------------------|
E|--0------5---0------9-----------------------------------------------------


Lyrics:

Verse A:
Love was kind
For a time
Now just a'
sin and' makes me blind

This mirror holds
My eyes too bright
That I can't see
the others in my life

Are we too young
Heads too strong
To bare the weight
of these others eyes

As I feel numb
Beneath her tongue
Beneath her curse of
this lover's eyes

Chorus:
But do not ask the price I pay
For I must live with my quiet rage
Tame the ghosts in my head
That run wild and wish me dead
Should you shake my ash to the wind
Lord forget all of my sins
Well let me die, where I lie
Neath' the curse of my lover's eyes

Verse B:
Cause' there's no drink
Or drug I've tried
To rid the curse
of this lover's eyes

Cause I feel numb
Beneath your tongue
Your strength just makes
me feel less strong

Repeat Chorus

Bridge A & B:
But I'll walk slow
I'll walk slow
Take my hand, help me on my way


************************************

| /   slide up
| \   slide down
| h   hammer-on
| p   pull-off
| ~   vibrato
| +   harmonic
| x   Mute note
| b   Bend
| pb  Pre-bend
| br  Bend release
| pbr Pre-bend release
| brb Bend release bend

************************************
Tap to rate this tab
 
# A B C D E F G H I J K L M N O P Q R S T U V W X Y Z