Song name
# A B C D E F G H I J K L M N O P Q R S T U V W X Y Z

Mumford And Sons - Lover Of The Light tab

Artist: Mumford And Sons
Song: Lover of the Light

I tabbed this out by ear, and it sounds decent to me so here it is! Enjoy!

Open C Tuning (Variation): CACGCE
No Capo

|----0-------------------------------0--------0-|
|----0-------------------------------0--------0-|
|----0-------------------------------0--------0-|
|----0-------------------------------0--------0-|
|----3-------------------------------8--------3-|
|----0-------------------------------5--------0-|
and in the middle of the night I may watch you go...

|---------------0-------------0------------0--0----0--|
|---------------0-------------0------------0--0----0--|
|---------------0-------------0------------0--0----0--|
|---------------0-------------0------------0--0----0--|
|---------------8-------------10-----------12-10---8--|
|---------------5-------------7------------9--7----5--|
There'll be no comfort in the shade of the shadows thrown

|--------0--0----------------0--0-|
|--------0--0----------------0--0-|
|--------0--0----------------0--0-|
|--------0--0----------------0--0-|
|--------8--3----------------10-3-|
|--------5--0----------------7--0-|
But I'll be yours, if you'll be mine

|-0----------------------0--------0-|
|-0----------------------0--------0-|
|-0----------------------0--------0-|
|-0----------------------0--------0-|
|-3----------------------8--------3-|
|-0----------------------5--------0-|
Stretch out my life, and pick the seams out

|-0---------------------0--------0--------0--|
|-0---------------------0--------0--------0--|
|-0---------------------0--------0--------0--|
|-0---------------------0--------0--------0--|
|-3---------------------8--------10-------12-|
|-0---------------------5--------7--------9--|
Take what you like, but close my ears and eyes

|---0--------0---------0-0------0--0-|
|---0--------0---------0-0------0--0-|
|---0--------0---------0-0------0--0-|
|---0--------0---------0-0------0--0-|
|---12-------10--------8-3------10-3-|
|---9--------7---------5-0------7--0-|
And watch me crumble,  over and over

(palm muted)
|--------------------0-|
|--------------------0-|
|--------------------0-|
|--------------------0-|
|--------------------8-|
|--------------------5-|
But love the one you hold

|----------------0--|
|----------------0--|
|----------------0--|
|----------------0--|
|----------------10-|
|----------------7--|
And I'll be your goal

|--------------0--|
|--------------0--|
|--------------0--|
|--------------0--|
|--------------12-|
|--------------9--|
To have and to hold

|------------------0-|
|------------------0-|
|------------------0-|
|------------------0-|
|------------------3-|
|------------------0-|
A lover of the light


That's pretty much the whole song's chords and repeated, just listen for chord and timing.

END

Lyrics:

In the middle of the night, I may watch you go
Ther'll be no value in the strength of walls that I'll have grown
There'll be no comfort in the shade of the shadows thrown
But I'll be yours, if you'll be mine

Stretch out my life and pick the seams out
Take what you like, but close my ears and eyes
Watch me crumble over and over

I have done wrong so build your tower
But call me home and I will build a thronw
And wash my eyes out never again

But love the one you hold
And I'll be your goal
To have and to hold
A lover of the light

Skin too tight and eyes like marbles
You spin me high so watch me as I glide
Before I tumble homeward, homeward

I know I tried, I was not stable
Flawed by pride, I miss my sanguine eyes
So hold my hands up...breathe in, breathe out

But love the one you hold
And I'll be your goal
To have and to hold
A lover of the light

And in the middle of the night, I may watch you go
There'll be no value in the strength of walls that I'll have grown
There'll be no comfort in the shade of the shadows thrown
You may not trust the promises of the change I'll show
But I'll be yours, if you'll be mine

So love the one you hold
And I will be your goal
To have and to hold
A lover of the light

So love the one you hold
And I will be your goal
To have and to hold
A lover of the light
Tap to rate this tab
 
# A B C D E F G H I J K L M N O P Q R S T U V W X Y Z